I Wanna Be Your Man (Acordes)

Ringo Starr

Subida por cantaor

Compartir


Cambiar Cifrado
Americano Latino

Cambiar Tonalidad
-1 +1
Imprimir FAQ
+A
-A

Texto

Desplazamiento

Transportador

Color de Fondo

Archivos

TONALIDAD, TAMAÑO, CIFRADO, SCROL.

Nos renovamos: Ahora puedes cambiar TODO haciendo clic en ICONO de la Guitarra () que aparece en la parte inferior de esta página.


LETRA CON ACORDES

Intro:
E|-----------|
B|-----------|
G|-----------|
D|-7b9p(5)---|
A|--------(7)|
E|-----------|

E7
I wanna be your lover baby
I wanna be your man
I wanna be your lover baby
I wanna be your man

Love you like no other baby
like no other can
Love you like no other baby
like no other can

                F#7 B7
I wanna be your man
E|-----------------------------|
B|-----------------------------|
G|-------------------11-10-9-8-|
D|-----------------------------|
A|-------------------9--8--7-6-|
E|-----------------------------|

                 E7 C#7
I wanna be your man
E|-----------------------------|
B|-----------------------------|
G|-------------------9-8-7-6---|
D|-----------------------------|
A|-------------------7-6-5-4---|
E|-----------------------------|

                F#7 B7
I wanna be your man
E|----------------------------|
B|----------------------------|
G|------------------11-10-9-8-|
D|----------------------------|
A|------------------9--8--7-6-|
E|----------------------------|

                 E D/E
I wanna be your man
E|---------------------|
B|---------------------|
G|------------------7~-|
D|------------------7~-|
A|---------------------|
E|---------------------|


Tell me that you love me baby
Let me understand
Tell me that you love me baby
I wanna be your man

            F#7 B7
I wanna be your man
E|-----------------------------|
B|-----------------------------|
G|-------------------11-10-9-8-|
D|-----------------------------|
A|-------------------9--8--7-6-|
E|-----------------------------|

                 E7 C#7
I wanna be your man
E|-----------------------------|
B|-----------------------------|
G|-------------------9-8-7-6---|
D|-----------------------------|
A|-------------------7-6-5-4---|
E|-----------------------------|

                F#7 B7
I wanna be your man
E|----------------------------|
B|----------------------------|
G|------------------11-10-9-8-|
D|----------------------------|
A|------------------9--8--7-6-|
E|----------------------------|

                 E D/E
I wanna be your man
E|---------------------|
B|---------------------|
G|------------------7~-|
D|------------------7~-|
A|---------------------|
E|---------------------|

Solo:
E|----------------------------------------------------------------------------|
B|---------------------------------------------------------12/9-7h9--12/9-7h9-|
G|---------------------------------9-7--9-12-9--9-7--9-12--12/9-7h9--12/9-7h9-|
D|-7b8r7-7b9r7p5-----5-7-7b8r7p5---9-7--9-12-9--9-7--9-12---------------------|
A|---------------7-7-------------7--------------------------------------------|
E|----------------------------------------------------------------------------|

Video Clip de I Wanna Be Your Man


ACORDES PARA GUITARRA

PIANO UKELELE
E7
F#7
B7
C#7
E
D/E


TOP 20: Las más tocadas de Ringo Starr


Toca una Canción al Azar de Ringo Starr

Acordes

Cerrar
E7
F#7
B7
C#7
E
D/E

18.54

x

184