E Por Isso Estou Aqui
Roberto Carlos
Acordes

Subida por Sc128
Álbum: Roberto Carlos em ritmo de aventura ( 1967)


Más Versiones
Ver. 2

Cambiar Cifrado
Americano Latino

Cambiar Tonalidad
-1 +1

Partir Pantalla Imprimir FAQ

+A
-A
Mudar para Português

Ver solo la LETRA
Intro: F#  C#7  F#  C#7  F#

E|------6--11-9-----------------9----------------------------------------------|
B|-7-7-9-7-----12-11-9-9-11-12-9-12-11h12-9-9h11-------------------------------|
G|-----------------------------------------------11----------------------------|
D|-----------------------------------------------------------------------------|
A|-----------------------------------------------------------------------------|
E|-----------------------------------------------------------------------------|

E|-----------------------------------------------------------------------------|
B|-12-11-9-------------9------9--------9---------------------------------------|
G|---------11-10-10-11---10-11-11-10-11-11-------------------------------------|
D|-----------------------------------------------------------------------------|
A|-----------------------------------------------------------------------------|
E|-----------------------------------------------------------------------------|

F# C#7
Olha dentro dos meus olhos
B
Vê quanta tristeza
C#7 F# C#7
De chorar por ti, por ti
F# C#7
Olha eu já não podia
B
Mais viver sozinho
C#7 F# C#7 F#
E por isso eu estou aqui
B C#7 F#
De saudade eu chorei
B C#7 F#
E até pensei que ia morrer

E|-6h7p6---6h7p6---------------------------------------------------------------|
B|-------9-------7-------------------------------------------------------------|
G|-----------------------------------------------------------------------------|
D|-----------------------------------------------------------------------------|
A|-----------------------------------------------------------------------------|
E|-----------------------------------------------------------------------------|

B E7 A
Juro que eu não sabia
D7 G C#7
Que viver sem ti eu não poderia
F# C#7
Olha quero te dizer
B
Todo aquele pranto
C#7 F# C#7
Que chorei por ti, por ti
F# C#7
Tinha uma saudade imensa
B
De alguém que pensa
C#7 F#
E morre por ti

Solo: F# C#7 B C#7 F# C#7 B C#7 F#

E|-7-6-------------6--9-7-6--------------7-6---------------------------7-6-4---|
B|-----9-6-7--7-7-9-7------9-7-6-6-7-9-6-----9-7-6--4-4-6-7-6-4-6-6-7-9--------|
G|-----------------------------------------------------------------------------|
D|-----------------------------------------------------------------------------|
A|-----------------------------------------------------------------------------|
E|-----------------------------------------------------------------------------|

E|------6--9-7-6--------------7-6----------------------------------------------|
B|-7-7-9-7------9-7-6-6-7-9-6-----9-7-6--4-4-6-7-6-4-6-6-7-9-6-7---------------|
G|-----------------------------------------------------------------------------|
D|-----------------------------------------------------------------------------|
A|-----------------------------------------------------------------------------|
E|-----------------------------------------------------------------------------|

B C#7 F#
De saudade eu chorei
B C#7 F#
E até pensei que ia morrer

E|-6h7p6---6h7p6---------------------------------------------------------------|
B|-------9-------7-------------------------------------------------------------|
G|-----------------------------------------------------------------------------|
D|-----------------------------------------------------------------------------|
A|-----------------------------------------------------------------------------|
E|-----------------------------------------------------------------------------|

B E7 A
Juro que eu não sabia
D7 G C#7
Que viver sem ti eu não poderia
F# C#7
Olha quero te dizer
B
Todo aquele pranto
C#7 F# C#7
Que chorei por ti, por ti
F# C#7
Tinha uma saudade imensa
B
De alguém que pensa...
C#7 F#
E morre por ti.

E|----6-7-6--------6-----------------------------------------------------------|
B|-7-9-7---9-7-6-9-7-----------------------------------------------------------|
G|-----------------6-----------------------------------------------------------|
D|-----------------4-----------------------------------------------------------|
A|-----------------------------------------------------------------------------|
E|-----------------------------------------------------------------------------|

ACORDES PARA GUITARRA

PIANO UKELELE
F#
C#7
B
E7
A
D7
G


COMENTARIOS

Aún no hay comentarios,

¡escribe el primero!

Escribe una pregunta, duda o comentario sobre esta canción, te responderemos a la brevedad.

Las más tocadas de Roberto Carlos

Toca una Canción al Azar de Roberto Carlos
F#
C#7
B
E7
A
D7
G