É Preciso Saber Viver (Acordes)

Roberto Carlos

Full Álbum: Roberto Carlos (1974)
Subida por elkrak

Compartir


Imprimir FAQ
+A
-A

Texto

Desplazamiento

Transportador

Color de Fondo

Archivos

-A
+A
[Intro] D  D7+  D7  G  Gm  D  Bm  E  G  A
 
        D
Quem espera que a vida
      D7+
Seja feita de ilusão
       D7
Pode até ficar maluco
       G
Ou morrer na solidão
      Gm
É preciso ter cuidado
          D            Bm
Pra mais tarde não sofrer
E          G       A
É preciso saber viver

      D
Toda pedra no caminho
      D7+
Você deve retirar
       D7
Numa flor que tem espinhos
      G
Você pode se arranhar
      Gm
Se o bem e o mal existem
   D         Bm
Você pode escolher
E          G       A
É preciso saber viver

G          D       Bm
É preciso saber viver
G          D       Bm
É preciso saber viver
G          D       Bm
É preciso saber viver
 E       G A
Saber viver

[Solo]  D  D7+  D7  G  Gm  D  Bm  E  G  A

E|------10-8-10------------------------------------|
B|-8h10---------8/10-------------------------------|
G|-------------------10-9--------------------------|
D|-------------------------------------------------|
A|-------------------------------------------------|
E|-------------------------------------------------|

E|------10-8-10-13-15-13-15/17--15-13-15-------14--|
B|-8h10-------------------------------15-15-14-14--|
G|-------------------------------------------------|
D|-------------------------------------------------|
A|-------------------------------------------------|
E|-------------------------------------------------|

E|-8b(10)-5------------------3---------------------|
B|----------8b(10)-6-----6-----3-------------------|
G|-------------------5h7---------4-----------------|
D|-------------------------------------------------|
A|-------------------------------------------------|
E|-------------------------------------------------|

      D
Toda pedra no caminho
      D7+
Você deve retirar
       D7
Numa flor que tem espinhos
      G
Você pode se arranhar
      Gm
Se o bem e o mal existem
   D         Bm
Você pode escolher
E          G       A
É preciso saber viver

G          D       Bm
É preciso saber viver
G          D       Bm
É preciso saber viver
G          D       Bm
É preciso saber viver
 E       G A
Saber viver
G          D       Bm
É preciso saber viver
G          D       Bm
É preciso saber viver
G          D       Bm
É preciso saber viver
 E       G A
Saber viver

HERRAMIENTAS ACORDESWEB:


LETRA DE LA CANCIÓN:

Ver la letra sola (sin acordes)

OTRAS VERSIONES DE LA MISMA CANCIÓN:

Ver. 2 Ver. 3 Ver. 4 Ver. 5 Ver. 6

DESCARGAR PDF / IMPRIMIR CANCIÓN



ACORDES PARA GUITARRA

PIANO UKELELE
D
Dmaj7
D7
G
Gm
Bm
E
A


TOP 20: Las más tocadas de Roberto Carlos


Acordes

Cerrar
D
Dmaj7
D7
G
Gm
Bm
E
A

15.06


178