Eu Te Amo, Te Amo, Te Amo
Roberto Carlos
Acordes

Subida por Andresg106
Álbum: O inimitável ( 1968)


Más Versiones
Ver. 2 Ver. 3 Ver. 4 Ver. 5 Ver. 6

Cambiar Cifrado
Americano Latino

Cambiar Tonalidad
-1 +1

Partir Pantalla Imprimir FAQ

+A
-A
Mudar para Português

Ver solo la LETRA
 F#                C#       B                   F#
Tanto tempo longe de você,quero ao menos lhe falar
C# B F#
A distância não vai impedir meu amor de lhe encontrar
Bm F#m Bm F#m
Cartas já não adiantam mais, quero ouvir a sua voz
Bm F#m D
Vou telefonar dizendo que eu estou quase morrendo
C#
De saudade de você

E|-------------------------|
B|-------------------------|
G|-------------------------|
D|---3-4-6-6-4-3-----------|
A|-4-------------4---------|
E|-------------------------|

F# B F# C#
Eu te amo, eu te amo, eu te amo

F# C# B F#
Eu não sei por quanto tempo eu tenho ainda que esperar
C# B F# Bm
Quantas vezes eu até chorei pois não pude suportar
F#m Bm F#m Bm
Para mim não adianta tanta coisa sem você
F#m A D
E então me desespero, por favor meu bem eu quero
C#
sem demora lhe falar

E|-------------------------|
B|-------------------------|
G|-------------------------|
D|---3-4-5-5-43-----------|
A|-4-------------4---------|
E|-------------------------|

F# B F# F#7
Eu te amo, eu te amo, eu te amo

Bm E A
Mas o dia que eu puder lhe encontrar
F#m Bm D
Eu quero contar o quanto sofri por todo esse tempo
C#
Que eu quis lhe falar

E|-------------------------|
B|-------------------------|
G|-------------------------|
D|---3-4-5-5-43-----------|
A|-4-------------4---------|
E|-------------------------|

F# B F# C#
Eu te amo, eu te amo, eu te amo

[Solo] F# C# B F# C# B F# Bm

F#m Bm F#m Bm
Cartas já não adiantam mais, quero ouvir a sua voz
F#m D
Vou telefonar dizendo que eu estou quase morrendo
C#
De saudade de você

E|-------------------------|
B|-------------------------|
G|-------------------------|
D|---3-4-5-5-43-----------|
A|-4-------------4---------|
E|-------------------------|

F# B F# F#7
Eu te amo, eu te amo, eu te amo

Bm E A
Mas o dia que eu puder te encontrar
F#m Bm D
Eu quero contar o quanto sofri por todo esse tempo
C#
Que eu quis lhe falar

E|-------------------------|
B|-------------------------|
G|-------------------------|
D|---3-4-5-5-43-----------|
A|-4-------------4---------|
E|-------------------------|

F# B F# C#
Eu te amo, eu te amo, eu te amo
F# B F# C#
Eu te amo, eu te amo, eu te amo

E|-------------------------|
B|-------------------------|
G|-------------------------|
D|---3-4-5-5-43-----------|
A|-4-------------4---------|
E|-------------------------|

( F# )

ACORDES PARA GUITARRA

PIANO UKELELE
F#
C#
B
Bm
F#m
D
A
F#7
E


COMENTARIOS

Aún no hay comentarios,

¡escribe el primero!

Escribe una pregunta, duda o comentario sobre esta canción, te responderemos a la brevedad.

Las más tocadas de Roberto Carlos

Toca una Canción al Azar de Roberto Carlos
F#
C#
B
Bm
F#m
D
A
F#7
E