Hoy daría yo la vida
Roberto Carlos
Acordes

Subida por Manuel



Otras Versiones
Ver. 2

Cambiar Cifrado
Americano Latino

Cambiar Tonalidad
-1 +1

Partir Pantalla Imprimir FAQ

+A
-A
Mudar para Português
LETRA CON ACORDES
g------------------------------------------------------------ 

d-5-55--5-55--5-55--5-------5-55--5--55---5-----7-5-55--5-55-
a--------------------1-1-5-5-----------3-3-3-5-5-5-----------
e------------------------------------------------------------
Hoy daría... Hoy daría...

g-----------5-----------------------5------------------------
d-----5-3--3-3----3-5--5-5----5-3--3-3----3-------7--5-55----
a-3--3-3------1--1-1----5-3--3-3------1--1-1__5--5-5---------
e------------------------------------------------------------
Ya no tengo... Hoy...
g------------------------------------------------------------
d-5-55----------------7--5-55----------------7---------------
a------2-22-------5--5-5------2-22-------5--5-5--------------
e-----------5-505------------------5-505---------------------
Digo a....
g------------------------------------------------------------
d-----5-5---5-5---5------9-5--5----8--8-8----7-7----7-4--5-55
a-3--3-----3---5-5-5-7--7-7----7--7----8-5--5---5--5---5-----
e---------3---------------------------------------------5----
más existe.... Hoy...


ACORDES PARA GUITARRA

PIANO UKELELE


COMENTARIOS

Aún no hay comentarios,

¡escribe el primero!

Para hacer una pregunta o dejar un comentario sobre esta canción, debes estar LOGUEADO

Las canciones más tocadas de Roberto Carlos

Toca una Canción al Azar de Roberto Carlos

Nuestro servidor se demoró 0.02 segundos en generar esta página. Eso fue realmente muy rápido!