Necesito llamar su atención
Roberto Carlos
Acordes

Subida por Belu



Otras Versiones
Ver. 2

Cambiar Cifrado
Americano Latino

Cambiar Tonalidad
-1 +1

Partir Pantalla Imprimir FAQ

+A
-A
Mudar para Português
LETRA CON ACORDES
(R.CARLOS-E. CARLOS- MACLUSKEY)
CANTA: ROBERTO CARLOS BALADA


INTRO: Bbm7 Eb7 Ab

e--------9/11---76/7---------11/13---87/ 8--|
B---------------------------------------------|
G----8----------------------8-----------------|
D---------------------------------------------|
A---------------------------------------------|
E---------------------------------------------|
DOS VECES


Ab
TODAS LAS VECES,
Bbm7 Eb7
QUE USTED PASA Y NO ME VE,
Bbm7 Eb7
QUEDO PENSANDO QUE NO HARIA
Ab
PARA TENERLA A USTED.

Eb7 Ab
QUEDO PENSANDO MILES DE COSAS
Db7 Gb7
CUALQUIER LOCURA HARIA TAL VEZ;
Ab
LOS DIAS PASAN CORRIENDO

VOY A ACABARLA PERDIENDO
Bbm7
TENGO QUE HAYAR LA FORMA
Eb7 Ab
DE LLAMAR SU ATENCION.


SI LA MEJOR SONRISA MIA,
Bbm7 Eb7
USTED NO VIO,
Bbm7
GRITE SU NOMBRE

Eb7 Ab
Y AUN ASI NO ME_ESCUCHO.

Ab7
POR MAS QUE PIENSE DE NADA VALE

Db7 Gb7
USTED NI NOTA MI EXISTENCIA,
Ab
LOS DIAS PASAN CORRIENDO

VOY A ACABARLA PERDIENDO
Bbm
TENGO QUE HAYAR LA FORMA
Eb7 Ab Bbm7 Eb7 Ab
DE LLAMAR SU ATENCION.Bbm7 Eb7 Ab

INTER: IGUAL AL INTRO

Bbm7
SI LA MEJOR SONRISA MIA,
Eb7
USTED NO VIO;
Bbm7
GRITE SU NOMBRE
Eb7 Ab
Y AUN ASI NO ME ESCUCHO.
Ab7
POR MAS QUE PIENSE DE NADA VALE
Db7 Gb7
USTED NI NOTA MI EXISTENCIA.

Ab
LOS DIAS PASAN CORRIENDO

VOY ACABARLA PERDIENDO,
Bbm7
LOS DIAS PASAN CORRIENDO

Eb7
VOY ACABARLA PERDIENDO;
Bbm7 Eb7
YA NO SE QUE MAS HACER
Ab Bbm7 Eb7 Ab
PARA LLAMAR SU ATENCION.Bbm7 Eb7 Ab.

FINAL:

e--------9/11---76/7---------11/13---87/ 8--|
B---------------------------------------------|
G----8----------------------8-----------------|
D---------------------------------------------|
A---------------------------------------------|
E---------------------------------------------l
CUATRO VECES .


BIEN AMIGOS,AHI TIENEN ESTA ROLA

DE ROBERTO CARLOS

ESPERO QUE LA DISFRUTEN.

CUALQUIER DUDA, CRITICA

O COMENTARIO MI CORREO ES:

[email protected]

SALUD Y MUCHA ARMONIA.


ACORDES PARA GUITARRA

PIANO UKELELE
Bbm7
Eb7
Ab
Db7
Gb7
Ab7
Bbm


COMENTARIOS

Aún no hay comentarios,

¡escribe el primero!

Para hacer una pregunta o dejar un comentario sobre esta canción, debes estar LOGUEADO

Las canciones más tocadas de Roberto Carlos

Toca una Canción al Azar de Roberto Carlos
Bbm7
Eb7
Ab
Db7
Gb7
Ab7
Bbm

Nuestro servidor se demoró 0.07 segundos en generar esta página. Eso fue realmente muy rápido!