Solamente una vez
Roberto Carlos
Acordes

Subida por Patricia
Álbum: Roberto Carlos ( 1977)



Otras Versiones

ENTRENA TU OÍDO MUSICAL CON ESTE JUEGO. ¿QUÉ ACORDE ES?. CLIC AQUÍ PARA JUGAR

Cambiar Cifrado
Americano Latino

Cambiar Tonalidad
-1 +1

Partir Pantalla Imprimir FAQ

Ver solo la LETRA

+A
-A
Mudar para Português
LETRA CON ACORDES
INTRO

D Gmaj7 Bm D Dmaj7
E --------------------------5--2-----------------------------|
B --------------------------------3--------------------------|
G -------------------2---------------4--2--------------------|
D -4--4--2--4--2--4--4--4-------------------4--4--2--4--2--4-|
A -5--5--4--5--4--5-----2-------------------5--5--4--5--4--5-|
E ----------------------3----------------------------------3-|


A+5 D Dmaj7 D6
Solamente una vez
Em A7
amé en la vida
Em Em7aug Em7
solamente una vez
A+5 D Em A7
y nada más,
D Em
una vez nada más
F#m D#° Em A7
en mi huerto brilló la esperanza,
Em Em7aug
la esperanza que alumbra
Em7 A+5 D Em A7
el camino de mi soledad.


A+5 D Dmaj7 D6
una vez nada más
Em A7
se entrega el alma
Em Em7aug Em7
con la dulce y total
A+5 D Em A7
renunciación,
D Em
y cuando ese milagro
F#m D#° Em A7
realiza el prodigio de amarse,
Em Em7aug
hay campanas de fiesta
Em7 A7 D
que cantan en el corazón.


PUENTE

D Gmaj7
E --------------------------|
B --------------------------|
G -------------------2------|
D -4--4--2--4--2--4--4--4---|
A -5--5--4--5--4--5-----2---|
E ----------------------3---|


B+5 E
una vez nada más . . .

REQUINTO

Emaj7 E6 F#m B7 F#m B7 E
E -12-12-12-11----9----------------------------------------11-9-----------|
B -------------12------------9-10-12-12------12-12-12-10-9---------12---5-|
G ------------------9-8-9-11------------8-8--------------------8-9----8---|
D ------------------------------------------------------------------------|
A ------------------------------------------------------------------------|
E ------------------------------------------------------------------------|

E F#m
y cuando ese milagro
G#m F#m B7
realiza el prodigio de amarse,
F#m F#m7aug
hay campanas de fiesta
F#m7 B7 E
que cantan en el corazón.

FINAL

E Amaj7 C#m E Emaj7
E --------------------------7--4-----------------------------|
B --------------------------------5--------------------------|
G -------------------4---------------6--4--------------------|
D -6--6--4--6--4--6--6--6-------------------6--6--4--6--4--6-|
A -7--7--6--7--6--7-----4-------------------7--7--6--7--6--7-|
E ----------------------5----------------------------------5-|


ACORDES PARA GUITARRA

PIANO UKELELE
D
Gmaj7
Bm
Dmaj7
A+5
D6
Ddim
Em
A7
Em7
Cdim
F#m
D#dim
B+5
E
Emaj7
E6
B7
G#m
F#m7
Amaj7
C#m


COMENTARIOS

Aún no hay comentarios,

¡escribe el primero!

Para hacer una pregunta o dejar un comentario sobre esta canción, debes estar LOGUEADO

Las canciones más tocadas de Roberto Carlos

Toca una Canción al Azar de Roberto Carlos
D
Gmaj7
Bm
Dmaj7
A+5
D6
Ddim
Em
A7
Em7
Cdim
F#m
D#dim
B+5
E
Emaj7
E6
B7
G#m
F#m7
Amaj7
C#m

Nuestro servidor se demoró 0.22 segundos en generar esta página. Eso fue realmente muy rápido!