un gato en la obscuridad

Roberto Carlos

Acordes

Subida por Sc128


Más Versiones
Ver. 2 Ver. 3 Ver. 4 Ver. 5 Ver. 6

Cambiar Cifrado
Americano Latino

Cambiar Tonalidad
-1 +1

Partir Pantalla Imprimir FAQ

+A
-A
Mudar para Português
Intro      Riff 1


Riff 1
D A
e------------------------------------------------------------------
B---------3-----3--------3-------3--------3-----3--------2------2--
G-------2-----2--------2-------2--------2-----2--------2------2----
D-----4-----4--------4-------4--------4-----4--------2------2------
A---5--------------5----------------5--------------0---------------
E------------------------------------------------------------------
D
e-------------------------------------
B---------2------2---------3-----3----
G-------2------2---------2-----2------
D-----2------2---------4-----4--------
A---0----------------5----------------
E-------------------------------------

D A
Cuando era un chiquillo, que alegría,
Em D
jugando a la guerra, noche y día,
D7 G Gm
saltando la verja, verte a ti, y así,
D A D
en tus ojos, algo nuevo, descubrir.


Las rosas decían, que eras mía,
y un gato me hacía, compañía,
desde que me dejaste, yo no sé, por que,
la ventana, es mas grande, sin tu amor.

PUENTE
F#m Am
El gato que está, en nuestro cielo,
B7 Em
no va a volver a casa si no estás,
D#aug G D#aug X65443
no sabes mi amor, que noche bella,
A D
presiento que tú estas en esa estrella.

CORO
F#m Bm
El gato que está, triste y azul,
G A D
nunca se olvida, que fuiste mía,
F#m Bm
más se que sabrá, de mi sufrir,
G A D Riff 2
porque en mis ojos, una lágrima hay.

Riff 2

D A D D#
e------------------------------------------------------------------
B---------3-----3--------2------2--------2-----2--------3-----3----
G-------2-----2--------2------2--------2-----2--------2-----2------
D-----4-----4--------2------2--------2-----2--------4-----4--------
A---5--------------0---------------0--------------5----------------
E------------------------------------------------------------------


D# Bb
Querida querida, vida mía,
Fm D#
reflejo de luna, que reía,
D#7 G# G#m
si el amar es errado, culpa mía, te amé,
D# Bb D#
en el fondo, qué es la vida, no lo sé.


PUENTE

Gm Bbm
El gato que está, en nuestro cielo,
C7 Fm
no va a volver a casa si no estás,
Eaug G# Eaug X76554
no sabes mi amor, que noche bella,
Bb D#
presiento que tú estas en esa estrella.


CORO 2
Gm Cm
El gato que está, triste y azul,
G# Bb D#
nunca se olvida, que fuiste mía,
Gm Cm
mas siempre serás, en mi mirar,
G# Bb D#
lágrima clara, de primavera.

Gm Cm
El gato que está, en la oscuridad,
G# Bb
sabe que en mi alma,
D#
una lagrima hay.

CORO 2 (2)
Gm
La ra la la la,
Cm
LA LA LA LA,
G#
LA LA LA LA LA,
Bb D#
LA LA LA LA LA.


NUEVO FORO DE MÚSICA

¿Tienes alguna duda, consulta, pregunta, consejo o algo para compartir sobre esta canción?

¡Puedes abrir un hilo en el FORO para que la comunidad te ayude! Hacer una pregunta

ACORDES PARA GUITARRA

PIANO UKELELE
D
A
Em
D7
G
Gm
F#m
Am
B7
Bm
D#
Bb
Fm
D#7
G#
G#m
Bbm
C7
Cm
A


Las más tocadas de Roberto Carlos

D
A
Em
D7
G
Gm
F#m
Am
B7
Bm
D#
Bb
Fm
D#7
G#
G#m
Bbm
C7
Cm
A