Yo te amo
Roberto Carlos
Acordes

Subida por jyelpo64



Otras Versiones
Ver. 2 Ver. 3

Cambiar Cifrado
Americano Latino

Cambiar Tonalidad
-1 +1

Partir Pantalla Imprimir FAQ

+A
-A
Mudar para Português
LETRA CON ACORDES

INTRO
Em Bm
E ---------0-0---0-0---0-0-0---------2-2---3-3---3-3-3--
B ---------0-0---0-0---0-0-0---------3-3---3-3---3-3-3--
G ---------0-0---0-0---0-0-0---------4-4---4-4---4-4-4--
D ---------2-2---2-2---2-2-2---------4-4---4-4---4-4-4--
A ---5-4-2-----------2---------5-4-2-----------4--------
E -5-----------0-------------5-----------2--------------

Em Bm Em
E ---------0-0---0-0---0-0-0---------2-2---3-3---3-3-3----------|
B ---------0-0---0-0---0-0-0---------3-3---3-3---3-3-3----------|
G ---------0-0---0-0---0-0-0---------4-4---4-4---4-4-4----------|
D ---------2-2---2-2---2-2-2---------4-4---4-4---4-4-4----------|
A ---5-4-2-----------2---------5-4-2-----------4----------5-4-2-|
E -5-----------0-------------5-----------2--------------5-------|



Em Bm Em Bm
Fue tanto lo que amé y no sabía
Em Bm
que poco a poco yo,
G A D
yo te perdía, yo te amo.



Em Bm Em Dm
Y fue mi loco amor, inaccesible
Em Bm
callar mi corazón
G A D
es imposible, yo te amo.



Bm F#m Bm F#m
Te amé sin más y enloquecí
Bm F#m A
no sé porque te perdí,
Em Bm Em Bm
el tiempo ya pasó y no consigo
Em Bm
callar mi corazón
G A D
y a veces digo que te amo.


PUENTE (REQUINTO)

Fm Cm Fm Cm Fm Cm Ab Bb Eb Fm
E --------------------------------------------------------------------|
B -------3---4--------3----------3---4--4-----------------------------|
G ---------5------------5----------5------5---------------------------|
D -3-5-6--------3-5-6------3-5-6------------5-6-3--------5------------|
A -------------------------------------------------3-1-3----3-1-------|
E --------------------------------------------------------------3-2-1-|


Fm Cm Fm Cm
el tiempo ya pasó y no consigo
Fm Cm
callar mi corazón
Ab Bb Eb
y a veces digo que te amo.



Fm Cm
Yo te amo, yo te amo,
Fm Cm
yo te amo, yo te amo,
Fm Cm
yo te amo, yo te amo,
Fm Cm
yo te amo, yo te amo . . . etc.


ACORDES PARA GUITARRA

PIANO UKELELE
Em
Bm
G
A
D
Dm
F#m
Fm
Cm
Ab
Bb
Eb


COMENTARIOS

Aún no hay comentarios,

¡escribe el primero!

Para hacer una pregunta o dejar un comentario sobre esta canción, debes estar LOGUEADO

Las canciones más tocadas de Roberto Carlos

Toca una Canción al Azar de Roberto Carlos
Em
Bm
G
A
D
Dm
F#m
Fm
Cm
Ab
Bb
Eb

Nuestro servidor se demoró 0.06 segundos en generar esta página. Eso fue realmente muy rápido!