Esta casa te espera
Roberto Orellana
Acordes

Subida por luisjte12



Otras Versiones
Ver. 2

ENTRENA TU OÍDO MUSICAL CON ESTE JUEGO. ¿QUÉ ACORDE ES?. CLIC AQUÍ PARA JUGAR

Cambiar Cifrado
Americano Latino

Cambiar Tonalidad
-1 +1

Partir Pantalla Imprimir FAQ

+A
-A
LETRA CON ACORDES
¡Dios te Bendiga!

Antes de empezar a tocar la canción
léela bien y practícalo
para que no halla confusiones...

¡Si vas a hacer un cover y lo subrirás a youtube
u otro canal, por favor avísame
quiero ver que tal te quedo!

¡Son los Acordes más precisos!
((Click en Calidad))

A# G7 D/F# Dm7/A
1|-6-----1----3-------1----------
2|-6-----0----3-------0----------
3|-7-----0----2-------0----------
4|-x-----0----x-------x----------
5|-x-----2----x-------0----------
6|-6-----3----2------------------


Intro:
A#
1|-------6--------------8--------
2|-----6---6---6------6---6---6--
3|---7-------7------7-------7----
4|------------------------------- x4
5|-------------------------------
6|-6--------------6--------------


--Ritmo en los Versos--

A# G7 D/F#
1|-------6--------------8---------|------1-----------------3-------------
2|-----6---6---6------6---6---6-x4-----0---0---0-x2------3---3---3-x2----
3|---7-------7------7-------7--------0-------0---------2-------2---------
4|-----------------------------------------------------------------------
5|-----------------------------------------------------------------------
6|-6--------------6---------------|-3----------------2-------------------

B G G7 A
1|------------------|--------3-------|--------1--|-------1---------------
2|-------4-----4-x2--------3---3---3--------0----------0-----------------
3|-----4---4-------------0-------0--------0----------0-------------------
4|---4-------4-----------------------------------------------------------
5|-2-----------------------------------------------0---------------------
6|------------------|--3-------------|--3--------|-----------------------

A#
Has de nuestros corazones Tu Altar
G7
De nuestras vidas Tú Casa Tu Habitación
D/F#
Una pasión hoy nos une
B G7 Dm7/A
Deseamos Tu Espíritu...

A#
Has de nuestros corazones Tu Altar
G7
De nuestras vidas Tú Casa Tu Habitación
D/F#
Una pasión hoy nos une
B G7 Dm7/A
Deseamos Tu Espíritu

--Coro--
D A D
Este Pueblo Te Adora
Bm F#m
Esta Casa Te Espera
G
Estamos Sedientos
C
De Un Avivamiento
G A
En Este Lugar

D A D
Este Pueblo Te Adora
Bm F#m
Esta Casa Te Espera
G
Tu Gloria Descienda
C
Tu Fuego Se Encienda
A# x8
En Este Lugar...

--Versos--
A#
Has de nuestros corazones Tu Altar
G7
De nuestras vidas Tú Casa Tu Habitación
D/F#
Una pasión hoy nos une
B G A
Deseamos Tu Espíritu...

A#
Has de nuestros corazones Tu Altar
G7
De nuestras vidas Tú Casa Tu Habitación
D/F#
Una pasión hoy nos une
B G A
Deseamos Tu Espíritu

--Coro--
D A D
Este Pueblo Te Adora
Bm F#m
Esta Casa Te Espera
G
Estamos Sedientos
C
De Un Avivamiento
G A
En Este Lugar

D A D
Este Pueblo Te Adora
Bm F#m
Esta Casa Te Espera
G
Tu Gloria Descienda
C
Tu Fuego Se Encienda
G A (A cambia en B para subir un tono)
En Este Lugar... x2

--Coro--
--Sube un tono--
E B E
Este Pueblo Te Adora
C#m G#m
Esta Casa Te Espera
A
Estamos Sedientos
D
De Un Avivamiento
A B
En Este Lugar...

E B E
Este Pueblo Te Adora
C#m G#m
Esta Casa Te Espera
A
Tu Gloria Descienda
D
Tu Fuego Se Encienda
C G
En Este Lugar...
C G
En Este Lugar...
C G
En Este Lugar...
C
En Este Lugar...

Si tienes duda agregame
www.facebook.com/AlexFabianChords
Cchecuu
Saludos desde Chiapas-México


ACORDES PARA GUITARRA

PIANO UKELELE
A#
G7
D/F#
Dm7/A
B
G
A
D
Bm
F#m
C
E
C#m
G#m


COMENTARIOS

Aún no hay comentarios,

¡escribe el primero!

Para hacer una pregunta o dejar un comentario sobre esta canción, debes estar LOGUEADO

Las canciones más tocadas de Roberto Orellana

Toca una Canción al Azar de Roberto Orellana
A#
G7
D/F#
Dm7/A
B
G
A
D
Bm
F#m
C
E
C#m
G#m

Nuestro servidor se demoró 0.13 segundos en generar esta página. Eso fue realmente muy rápido!