Sólo faltas tú
Rodrigo Rojas
Acordes

Subida por Dancov88



Otras Versiones
Ver. 2

Cambiar Cifrado
Americano Latino

Cambiar Tonalidad
-1 +1

Partir Pantalla Imprimir FAQ

+A
-A
LETRA CON ACORDES
Esta es una hermosa canción hecha por la unión de estos talentosos
artistas: Adrián Gil (Cuba), Bernardo Quesada (Costa Rica),
Rodrigo Rojas (Bolivia) y Edgar Oceransky (México). Que grabaron
el disco titulado MAS ALLA DEL TIEMPO, llegue a apreciar alguno de
sus temas en el programa VINO Y NOTAS cuando tocaron en acústico
y me fascino sobre todo este tema, espero que les guste..

-NOTA: Les dejo el link del tema:
http://www.youtube.com/watch?v=5wbqmJnLDak
-Si tocan escuchando la canción no creo q tengan muchos problemas de
ubicar cada acorde y punteo en su lugar.



IMAGINA+¡¡-COVERS
Sucre-Bolivia
JOSE MANUEL DIAZ FLORES

-Intro: Am


F G Am G
Hoy que soy uno con el mar Ay ay ay ay
F G Am G
Hoy que me pierdo en el azul Uhh uh uh uh
F G C Am
Hoy que entendí la libertad ……
F G Am
Siento que solo faltas tu ……

e---0----------|
B-----3-1------|
G---------2-0--|
D--------------|
A-0------------|
E--------------|

F G Am G
Hoy que encontrado mi lugar Ay ay ay ay
F G Am G
Hoy que mi vida no es un blues Uhh uh uh uh
F G C Am
Hoy que es feliz mi soledad ……
F G Am
Siento que solo faltas tu

e-12-10-8-5-3--|
B--------------|
G--------------|
D--------------|
A--------------|
E--------------|


C G
Aah yaa yaa yaa yay
F
Aah yaa yaa yay
G
Aah yaa yaa yay
C
Siento que solo faltas tu
G
Aah yaa yaa yay
F
Aah yaa yaa yay
G
Aah yaa yaa yay
Am
Siento que solo faltas tu

e-5---555---3h5--------|
B-5--5----5-----3p5----|
G-5-----------------5--|
D-7--------------------|
A-7--------------------|
E-5--------------------|


F G Am G
Hoy que la luz volvió a brillar Ay ay ay ay
F G Am G
Hoy que no cargo con mi cruz Uh uh uh uh
F G C Am
Hoy que he dejado de buscar [----[(PUNTEO)[-----.
F G Am |
Siento que solo faltas tu |
|
e---------------------| |
B-----5-------5-------| |
G-5h7---7-5h7---7-5---|]-------------------------.
D-------------------7-|
A---------------------|
E---------------------|

C G
Aah yaa yaa yaa yay
F
Aah yaa yaa yay
G
Aah yaa yaa yay
C
Siento que solo faltas tu
G
Aah yaa yaa yay
F
Aah yaa yaa yay
G
Aah yaa yaa yay
G#
Siento que solo faltas tu …
Bb Gm Cm
Uuhh uhhhhhh
G# Bb
Yheee eh eh ehh
F G
Uouuhhh!!!!


C G
Aah yaa yaa yaa yay
F
Aah yaa yaa yay
G
Aah yaa yaa yay
C
Siento que solo faltas tu
G
Aah yaa yaa yay (Por que mi vida no es un blues)
F
Aah yaa yaa yay (Por que no cargo con mi cruz)
G
Aah yaa yaa yay (Siento q faltas….)
F
Siento que solo faltas tu ….

e----------------------------|
B----------------8-10----8-8-|
G-10-10-10-10-10------10-----|
D----------------------------|
A----------------------------|
E----------------------------|

G Am
Yheei … Siento que solo faltas tu


ACORDES PARA GUITARRA

PIANO UKELELE
Am
F
G
C
G#
Bb
Gm
Cm


COMENTARIOS

Aún no hay comentarios,

¡escribe el primero!

Para hacer una pregunta o dejar un comentario sobre esta canción, debes estar LOGUEADO

Las canciones más tocadas de Rodrigo Rojas

Toca una Canción al Azar de Rodrigo Rojas
Am
F
G
C
G#
Bb
Gm
Cm

Nuestro servidor se demoró 0.06 segundos en generar esta página. Eso fue realmente muy rápido!