Nunca Vai Ser Eu (Acordes)

Saia Rodada

Subida por mjespcor

Compartir


Imprimir FAQ
+A
-A

Texto

Desplazamiento

Transportador

Color de Fondo

Archivos

-A
+A
[Intro] Em7  D  Am  C 
        Em7  D  Am  C 

E|-------10--7-------------7--5-------5-5-3-5-5-5-7-5-|
B|--------8--8-------------7--5-----------------------|
G|-----7-----------------7----------------------------|
D|---9-----------------7------------------------------|
A|-7-----------------5--------------0---------------3-|
E|----------------------------------------------------|

E|--3-----5-------------------------------------------|
B|----5-5---------------------------------------------|
G|----------------------------------------------------|
D|----------------------------------------------------|
A|----3-3---------------------------------------------|
E|----------------------------------------------------|

E|-------10--7-------------7--5-------5-5-3-5-5-5-7-5-|
B|--------8--8-------------7--5-----------------------|
G|-----7-----------------7----------------------------|
D|---9-----------------7------------------------------|
A|-7-----------------5--------------0---------------3-|
E|----------------------------------------------------|

E|--3-----5-------------------------------------------|
B|----5-5---------------------------------------------|
G|----------------------------------------------------|
D|----------------------------------------------------|
A|----3-3---------------------------------------------|
E|----------------------------------------------------|

[Primeira Parte]

 Em                          D
Seu olhar não nega quando a gente se encontra
 Am                   C
Você de cabeça se entrega sem querer
 Em                           D
Sempre não fala nada, mas eu sei que quer conversa
     Am                       C
Se quer saber então vou te dizer

[Pré-Refrão]

            Em                       D
Você tá beijando uma boca que não é sua
                 Am                  C
Tá abraçando um corpo que nunca foi seu
              Em                       D
Ele tá te iludindo só pra te ter toda nua
          Am              C             D
Mas a verdade é que você nunca me esqueceu
          
[Refrão]

           Em                         D
Ele tá no meu lugar mas nunca vai ser eu 
           Am                         C
Ele tá no meu lugar mas nunca vai ser eu
           Em                         D
Ele tá no meu lugar mas nunca vai ser eu
 Am                   C
Porque seu coração é meu

Em7  D  Am  C )
Em7  D  Am  C )

[Primeira Parte]

 Em                          D
Seu olhar não nega quando a gente se encontra
 Am                   C
Você de cabeça se entrega sem querer
 Em                           D
Sempre não fala nada, mas eu sei que quer conversa
     Am                       C
Se quer saber então vou te dizer

[Pré-Refrão]

            Em                       D
Você tá beijando uma boca que não é sua
                 Am                  C
Tá abraçando um corpo que nunca foi seu
              Em                       D
Ele tá te iludindo só pra te ter toda nua
          Am              C             D
Mas a verdade é que você nunca me esqueceu
          
[Refrão]

           Em                         D
Ele tá no meu lugar mas nunca vai ser eu 
           Am                         C
Ele tá no meu lugar mas nunca vai ser eu
           Em                         D
Ele tá no meu lugar mas nunca vai ser eu
 Am                   C
Porque seu coração é meu

           Em                         D
Ele tá no meu lugar mas nunca vai ser eu 
           Am                         C
Ele tá no meu lugar mas nunca vai ser eu
           Em                         D
Ele tá no meu lugar mas nunca vai ser eu
 Am                   C
Porque seu coração é meu

[Final] Em7  D  Am  C
        Em7  D  Am  C

Video Clip de Nunca Vai Ser Eu


ACORDES PARA GUITARRA

PIANO UKELELE
Em7
D
Am
C
Em


TOP 20: Las más tocadas de Saia Rodada


Toca una Canción al Azar de Saia Rodada

Acordes

Cerrar
Em7
D
Am
C
Em

23.21

x

188