Quero Sentir de Novo (Acordes)

Saia Rodada

Subida por Miguelrey

Compartir


Imprimir FAQ
+A
-A

Texto

Desplazamiento

Transportador

Color de Fondo

Archivos

-A
+A
[Intro] Bb  Bb  Bb  C

[Solo]

E|------6--5--------------------|
B|------------6-----------------|
G|--5/7-7--5--------------------|
D|------------7-----------------|
A|------------------------------|
E|------------------------------|

E|-------6--5-------------------|
B|-------------6--10/13-13------|
G|--5/7--7--5-------------------|
D|-------------7--10/14-14------|
A|------------------------------|
E|------------------------------|

[Riff 1]

E|--1-0h1p0------------|
B|----------3--1--1/3--|

Bb          C             Dm
Quero sentir de novo o calor do seu corpo colado no meu
Bb        C           Dm
Aquele beijo safado que um dia me deu

                         Bb                C               Dm
Tô com saudade até do cheiro daquele perfume que você usava
                          Bb               C               Dm
Dolce & Gabbana ou 212 ficou impregnado dentro da minha casa
                           Bb                C
Mas o que eu posso fazer, se ela não quer mais me ver

             Bb
Eu vou beber pra não chorar
            C
E se eu chorar bebendo
         Dm
Alguém avisa a ela que eu estou sofrendo
       Bb
Sofrendo por amar
        C           Dm
Alguém que já botou outro no meu lugar

Video Clip de Quero Sentir de Novo


ACORDES PARA GUITARRA

PIANO UKELELE
Bb
C
Dm


TOP 20: Las más tocadas de Saia Rodada


Toca una Canción al Azar de Saia Rodada

Acordes

Cerrar
Bb
C
Dm

10.58

x

96