Areia (part. Lucas Lima) (Acordes)

Sandy


Subida por juliangoita

Compartir


Cambiar Cifrado
Americano Latino

Cambiar Tonalidad
-1 +1
Imprimir FAQ

Para cambio de tonalidad, zoom, cambio de cifrado, haz clic en este botón


CONSEJO:

Afina tu guitarra antes de tocar. Prueba nuestro afinador en linea.

+A
-A

Texto

Desplazamiento

Transportador

Color de Fondo

Archivos

Mudar para Português

TONALIDAD, TAMAÑO, CIFRADO, SCROL.

Nos renovamos: Ahora puedes cambiar TODO haciendo clic en ICONO de la Guitarra () que aparece en la parte inferior de esta página.


LETRA CON ACORDES

[Intro]

A  D7M(9)

[Intro]

Parte 1

   A
E|------------------------------------------|
B|---------2-----2--------------2-----------|
G|-----2-----2-----2--------2-----2---2-----|
D|-2-2---2-----2-----2--2-2---2-----2-------|
A|-0--------------------0-------------------|
E|------------------------------------------|

Parte 2

   D7M(9)
E|------------------------------------------|
B|---------2--------------------2-----------|
G|-----2-----2---2---2------2---------------|
D|-2-2---2-----2---2----2-2---2---2---------|
A|-0--------------------0-------------------|
E|-0--------------------0-------------------|

[Primeira Parte]

              A
Quer parar o tempo

Natural que seja assim
                 D7M(9)
Ainda eu não te sei de cor

Tem tanto que eu não aprendi

              A
Quer parar o tempo?

Pra eu ver daqui
           D7M(9)
Teu mundo vir assanhar meu rio

Eu posso até te olhar sem ir

[Primeira Parte]

Parte 1

   A
E|------------------------------------------|
B|---------2--------------------2-----------|
G|-----2-----2---2---2------2-----2---2-----|
D|-2-2---2-----2---2----2-2---2-----2-------|
A|-0--------------------0-------------------|
E|------------------------------------------|

Parte 2

   D7M(9)
E|------------------------------------------|
B|---------2--------------------2-----------|
G|-----2-----2---2---2------2-----2---2-----|
D|-2-2---2-----2---2----2-2---2-----2-------|
A|-0--------------------0-------------------|
E|-0--------------------0-------------------|

[Pré-refrão]

             Bm7
Tudo no seu tempo
               D9
Tão veloz por dentro
        A
Em mim passa devagar
     E/G#
A me acertar

[Pré-refrão]

Parte 1

   Bm7                D9
E|------------------------------------------|
B|-------3-----3--------------3-------------|
G|-----2---2-----2--------2-----2---2-------|
D|---2-------4-----4----4---4-----4---------|
A|-2------------------5---------------------|
E|------------------------------------------|

Parte 2

   A                  E/G#
E|------------------------------------------|
B|---------2----------------0---------------|
G|-----2-----2---2--------------------------|
D|---2---2-----2--------6-------------------|
A|-0------------------7---7-----------------|
E|------------------6-----------------------|

[Refrão]

        Bm7
Feito areia êa-ah
 A/C#   D9
Feito areia êa-ah
    A       E/G#
Em mim, em mim

        Bm7
Feito areia êa-ah
 A/C#   D9
Feito areia êa-ah
    A  D7M(9)
Em mim

[Segunda Parte]

           A
Tenho fragmentos

De uma vida com você
               D7M(9)
E tantos intervalos só

De longe, mas querendo crer

[Pré-refrão]

             Bm7
Tudo no seu tempo 

(Tudo no seu tempo)
               D9
Tão veloz por dentro

(Tão veloz por dentro)
        A
Em mim passa devagar
     E/G#
A me acertar

[Refrão]

        Bm7
Feito areia êa-ah
 A/C#   D9
Feito areia êa-ah
    A       E/G#
Em mim, em mim

        Bm7
Feito areia êa-ah
 A/C#   Bm7
Feito areia êa-ah
    A  D7M(9)
Em mim

[Terceira Parte]

 Bm7
Corta essa distância
     D9                  A
Se agarra nesse vento e vem
      E/G#
Me abraçar

 Bm7
Dá pra juntar tudo
   D9                   F#m7(11)
Espera o tempo certo e vem
           E/G#
Não deixa passar
     D9
E assim
          A             E
Enquanto der, enquanto quer
  D7M(9)  (passagem Terceira Parte)
E assim

[Passagem Terceira Parte]

E|-0--0--0----------------------------------|
B|------------------------------------------|
G|------------------------------------------|
D|-2--2--2----------------------------------|
A|------------------------------------------|
E|------------------------------------------|

[Refrão]

        Bm7
Feito areia êa-ah
 A/C#   D9
Feito areia êa-ah
    A       E/G#
Em mim, em mim

        Bm7
Feito areia êa-ah
 A/C#   Bm7
Feito areia
    A       E/G#
Em mim, em mim

        Bm7(9)
Feito areia êa-ah
 A/C#   D7M
Feito areia êa-ah

[Final]

   Bm7(9)     A/C#
E|------------------------------------------|
B|---------2-----------------2--------------|
G|-----2-------2---------2------------------|
D|---0---0-----2-------0---0----------------|
A|-2-----------0----------------------------|
E|-------------------0----------------------|

Video Clip de Areia (part. Lucas Lima)


ACORDES PARA GUITARRA

PIANO UKELELE
A
Dmaj9
Bm7
D9
E/G#
A/C#
F#m11
E
Bm9
Dmaj7


TOP 20: Las más tocadas de Sandy


Toca una Canción al Azar de Sandy

Acordes

Cerrar
A
Dmaj9
Bm7
D9
E/G#
A/C#
F#m11
E
Bm9
Dmaj7

21.01


115