Compartir


Imprimir FAQ
+A
-A

Texto

Desplazamiento

Transportador

Color de Fondo

Archivos

-A
+A
Espero que gostem
qualquer coisa [email protected]

intro(00:00)
E|--0-2-4--------
A|2------2-------
D|---------0-0---
G|---------------

pré-verse (00:39)
E|---------------
A|---------------
D|--6-5-4---6----
G|5-------5---5-7

refrão(00:51)
E|--5-------3-2---0-5-----5-------3-2--0-----5|33-22-00-5--
A|5----2-4-------------5-----2-4---------5-3--|------------
F|--------------------------------------------|------------
G|--------------------------------------------|------------

intro 2(01:23) (x1)          vai repetindo...
E|---0-2-4-------|-------0-2-4--------
A|-2------2------|-0-1-2-------2------
D|-----------0-0-|---------------0-0--
G|---------------|--------------------

pre-verse 2(01:49)
E|-------4--3--2---------4----------------------
A|0-1-2-----------0-1-2------333333--555555-----
D|-----------------------------------------2-4--
G|---------------------------------------------2

refrão 2(02:02)corrigir
E|--5-------543-2---0------5-----5-------3-2------5|33-22-00-5
A|5----2-4----------------5---5-----2-4--------42--|----------
D|--------------------457--------------------2-----|----------
G|-------------------------------------------------|----------

outro (02:34)
e|3--2-0--0-3--2-0--0-3--2-0|-----------
a|--------------------------|-----------
d|--------------------------|22---------
g|--------------------------|---55-4-444

cont. outro (02:47)
E|33--2-00--0-33-----00--0-33--2-00|-------------------------
A|----------------5-7--------------|-------------------------
D|---------------------------------|22-----------------------
G|---------------------------------|---55-4-444444444444-4---

refrão 3 (03:04_
E|----0-3-5--------------3-2---1-0---------55----5-|33-22-00-5-3-2-0---
A|9/-5------0-1-2--2-3-4-----------------55----5---|-------------------
D|---------------------------------4-5-7-----------|-------------------
G|-------------------------------------------------|-------------------

final(03:58)
E|--------4--3--2-----4--3--2-------------4--3--2-----4--3--2--
A|-----2-----------2-------------------2-----------2-----------
D|--9/-------------------------2/4---4-------------------------
G|11-------------------------------2---------------------------

Video Clip de Undertow


ACORDES PARA GUITARRA

PIANO UKELELE


TOP 20: Las más tocadas de Sara Bareilles


Acordes

Cerrar

01.56

x

232