Compartir


Imprimir FAQ
+A
-A

Texto

Desplazamiento

Transportador

Color de Fondo

Archivos

-A
+A
(00:00)                       (x4)
g---------------------------------
d---------------------------------
a11----------5-3--11---------5-353
e----11--322---------11--322------

(00:48)
g------------------------------------
d---------------------------------2--
a11---------5-353--11---------5-35-3-
e---11--322-----------11--322-------3

(01:00)
g-----------------------------
d-----------------------------
a---------3/5-3----------3/5-3
e4--1-1/2-------4--1-1/2------

(01:12)
g-----------------
d-----------------
a3--0------2-4--00
e----3--3-5-------

(01:23)                       (x2)
g----------------------------------
d----------------------------------
a11----------5-3--11----------5-353
e----11--322----------11--322------

(01:48)
g------------------------------------
d---------------------------------2--
a11----------5-3--11----------5-35-3-
e----11--322----------11--322-------3

(02:00)
g-----------------------------
d-----------------------------
a---------3/5-3----------3/5-3
e4--1-1/2-------4--1-1/2------

(02:12)
g----------------
d----------------
a3--0------2-4-00
e----3--3-5------

(02:24)
g-------------------------------------------------------------------------
d-------------------------------------------------------------------------
a---------3------------4--333-222------------------3------------4---3-2-5~
e1111-11-5-5--2222-22-6-6---------222222--1111-11-5-5--2222-22-6-6--------

(02:47)                        (x3)
g----------------------------------
d----------------------------------
a11----------5-3--11----------5-353
e----11--322----------11--322------

(03:00)
g------------------------------------
d---------------------------------2--
a11----------5-3--11----------5-35-3-
e----11--322----------11--322-------3

(03:12)
g-----------------------------
d-----------------------------
a---------3/5-3----------3/5-3
e4--1-1/2-------4--1-1/2------


(03:24)
g----------------
d-------2---------
a3--0----30--00
e----3-----1----

(03:35)                              (2x)
g----------------------------------------
d7/--------------------------------------
a---11----------3/5-3--11-----------5-353
e-------11--322------------11--322-------

(03:47)
g---------------------------------
d---------------------------------
a11---------3/5-3--11---------3/5~
e----11--322-----------11--322----

Video Clip de Vegas


ACORDES PARA GUITARRA

PIANO UKELELE


TOP 20: Las más tocadas de Sara Bareilles


Acordes

Cerrar

10.41

x

74