Feliz (Acordes)

Scambo

Subida por Noeliia

Compartir


Imprimir FAQ
+A
-A

Texto

Desplazamiento

Transportador

Color de Fondo

Archivos

-A
+A
Intro:
   D      F#m7  C   Em7
E|--------------------------------------|
B|--------------------------------------|
G|-----2-4-2----------------------------|    (3x)
D|-0-4-------4-5-4-2-4-2-0--------------|
A|--------------------------------------|
E|--------------------------------------|

E|--------------------------------------|
B|--------------------------------------|
G|-----2-4-2-------2--------------------|
D|-0-4-------4-5-4----------------------|
A|--------------------------------------|
E|--------------------------------------|

Riff:

E|-10-----9-----8---7-------------------|
B|---10----10----8---8------------------|
G|-----11----11---9---9-----------------|
D|--------------------------------------|
A|--------------------------------------|
E|--------------------------------------|



D    F#m7 C            Em7
 Verter dois no mesmo jarro
D    F#m7 C            Em7
  Unir cores e criar uma só cor
D    F#m7 C            Em7
 Ação seus primeiros passos eu vi
D    F#m7 C            Em7       (Riff)
 E ri, perto paraquedas minha mão
D    F#m7 C            Em7 (Riff)
          Perto paraquedas eu
D    F#m7 C            Em7
          Perto paraquedas...(2x)

D                       B      C
 Se um dia eu fosse de tropeçar ou cair
D                       B      C
 Com você no colo mãos ao alto são e salva(2x)

   D      F#m7  C   Em7
E|--------------------------------------|
B|--------------------------------------|
G|-----2-4-2----------------------------|    (3x)
D|-0-4-------4-5-4-2-4-2-0--------------|
A|--------------------------------------|
E|--------------------------------------|
   Feliz, tudo brincadeira(3x)

   Feliz, feliz...


E|-52-0235320----7-5-2-3-2-0-2-0--------|
B|-------------------------------3------|
G|------------02------------------------|
D|--------------------------------------|
A|--------------------------------------|
E|--------------------------------------|

E|-52-0235320----7-5-2-3-5--------------|
B|--------------------------------------|
G|------------02------------------------|
D|--------------------------------------|
A|--------------------------------------|
E|--------------------------------------|

D                       B      C
 Se um dia eu fosse de tropeçar ou cair
D                       B      C
 Com você no colo mãos ao alto sã e salva   (2x)


   D      F#m7  C   Em7
E|--------------------------------------|
B|--------------------------------------|
G|-----2-4-2----------------------------|    (3x)
D|-0-4-------4-5-4-2-4-2-0--------------|
A|--------------------------------------|
E|--------------------------------------|
   Feliz, tudo brincadeira

   Feliz, feliz...

   D      F#m7  C   Em7
E|-52------------7-5--------------------|
B|--------------------------------------|
G|--------------------------------------|
D|--------------------------------------|
A|--------------------------------------|
E|--------------------------------------|
   Me viu, sorriu, correu

   D      F#m7  C   Em7
E|------------------7-5-2-5-------------|
B|--------------------------------------|
G|--------------------------------------|
D|--------------------------------------|
A|--------------------------------------|
E|--------------------------------------|
 Te vi, sorri, corri

   D      F#m7  C   Em7
E|------------------0-2-3-2-0-----------|
B|----------------------------3---------|
G|--------------------------------------|
D|--------------------------------------|
A|--------------------------------------|
E|--------------------------------------|
 Me viu, sorriu, correu

D      F#m7  C   Em7
 Te vi, sorri, corri

   D      F#m7  C   Em7
E|--------------------------------------|
B|--------------------------------------|
G|-----2-4-2----------------------------|    (3x)
D|-0-4-------4-5-4-2-4-2-0--------------|
A|--------------------------------------|
E|--------------------------------------|

   D      F#m7  C   A
E|--------------------------------------|
B|--------------------------------------|
G|-----2-4-2-------2--------------------|
D|-0-4-------4-5-4----------------------|
A|--------------------------------------|
E|--------------------------------------|

HERRAMIENTAS ACORDESWEB:


LETRA DE LA CANCIÓN:

Ver la letra sola (sin acordes)

OTRAS VERSIONES DE LA MISMA CANCIÓN:

Ver. 2 Ver. 3 Ver. 4 Ver. 5 Ver. 6

DESCARGAR PDF / IMPRIMIR CANCIÓN



ACORDES PARA GUITARRA

PIANO UKELELE
D
F#m7
C
Em7
B
A


TOP 20: Las más tocadas de Scambo


Toca una Canción al Azar de Scambo

Acordes

Cerrar
D
F#m7
C
Em7
B
A

08.35


160