Popotitos (Acordes)

Seru Giran

Subida por craymundo

Compartir


Imprimir FAQ
+A
-A

Texto

Desplazamiento

Transportador

Color de Fondo

Archivos

-A
+A
El bajo empieza a los 8 segundos, después de la intro de la guitarrA

G---------------------------------------
D---------------------2---2-0-----------
A-------------2-4-------------4-2-4-----  x4
E---0--0-3-4------------------------3-4-

Mi amor entero es de mi novia popotitos
G------------|---------------------------------------
D------------|---------------------2---2-0-----------
A------------|-------------2-4-------------4-2-4-----
E-0----------|---0--0-3-4------------------------3-4-

sus piernas son como un par de carrilitos
G------------|---------------------------------------
D------------|---------------------2---2-0-----------
A------------|-------------2-4-------------4-2-4-----
E-0----------|---0--0-3-4------------------------3-4-

y cuando a las fiestas la llevo a bailar
G------------------------|-------------------2---2-0-----------
D------------------------|-----------2-4-------------4-2-4-----
A------------------------|-0--0-3-4------------------------3-4-
E-3/5-5--3/5-5-----3/5-5-|-------------------------------------

sus piernas flacas se parecen quebrar
G------------|---------------------------------------
D------------|---------------------2---2-0-----------
A------------|-------------2-4-------------4-2-4-----
E-0----------|---0--0-3-4------------------------3-4-

ahh mi popotitos no es un primor
G-----------------|---------------------
D-----------------|---------------------
A-2-2-2-2-2-2-2-2-|-0-0-0-0-0-0-0/1-1-2-
E-----------------|---------------------

pero baila que da pavor
G---------2/4--------|-----------------
D--------------------|-----------------
A-2-2-2-2-----2-0-2--|-0-0-0-0-0-0-0-2-
E--------------------|-----------------

a mi popotitos yo le di mi amor
G---------------------------------------
D---------------------2---2-0-----------
A-------------2-4-------------4-2-4-----
E---0--0-3-4------------------------3-4-
---
G---------------------------------------
D---------------------2---2-0-----------
A-------------2-4-------------4-2-4-----
E---0--0-3-4------------------------3-4-

Cuando hay aire fuerte ella parece volar
G------------|---------------------------------------
D------------|---------------------2---2-0-----------
A------------|-------------2-4-------------4-2-4-----
E-0------2/4-|---0--0-3-4------------------------3-4-

y entre la lluvia no se va mojar
G------------|---------------------------------------
D------------|---------------------2---2-0-----------
A------------|-------------2-4-------------4-2-4-----
E-0--------00|---0--0-3-4------------------------3-4-

con popotitos me voy a casar
G---------------------|-------------------2---2-0-----------
D---------------------|-----------2-4-------------4-2-4-----
A---------------------|-0--0-3-4------------------------3-4-
E-4/5-5-5-5-4/5-5-5-5-|-------------------------------------

de aqui en adelante la voy a delirar
G------------|---------------------------------------
D------------|---------------------2---2-0-----------
A------------|-------------2-4-------------4-2-4-----
E-0----------|---0--0-3-4------------------------3-4-

ahh mi popotitos no es un primor
G-------------2/4---|------------0/2----
D-------------------|-------------------
A-2-2-2-2-2-2-----2-|-0-0-0-0-0------0-1
E-------------------|-------------------

pero baila que da pavor
G---------2/4--------|------------0/2----
D--------------------|-------------------
A-2-2-2-2-----2-0-2--|-0-0-0-0-0------0-1
E--------------------|-------------------

a mi popotitos yo le di mi amor
G---------------------------------------
D---------------------2---2-0-----------
A-------------2-4-------------4-2-4-----
E---0--0-3-4------------------------3-4-

G---------------------------------------
D---------------------2---2-0-----------
A-------------2-4-------------4-2-4-----
E---0--0-3-4------------------------3-4-

Solo:
G---------------------------------------
D---------------------2---2-0-----------
A-------------2-4-------------4-2-4-----  x4
E---0--0-3-4------------------------3-4-

G-------------------2---2-0-----------
D-----------2-4-------------4-2-4-----
A-0--0-3-4------------------------3-4-   x2
E-------------------------------------

G---------------------------------------
D---------------------2---2-0-----------
A-------------2-4-------------4-2-4-----  x2
E---0--0-3-4------------------------3-4-

G-------------2/4---|------------0/2----
D-------------------|-------------------
A-2-2-2-2-2-2-----2-|-0-0-0-0-0------0-1
E-------------------|-------------------

G---------2/4--------|------------0/2----
D--------------------|-------------------
A-2-2-2-2-----2-0-2--|-0-0-0-0-0------0-1
E--------------------|-------------------

G---------------------------------------
D---------------------2---2-0-----------
A-------------2-4-------------4-2-4-----  x2
E---0--0-3-4------------------------3-4-

Popotitos baila rock and roll
G------------|---------------------------------------
D------------|---------------------2---2-0-----------
A------------|-------------2-4-------------4-2-4-----
E-0----------|---0--0-3-4------------------------3-4-

no la ves ni con la luz del sol
G----------------|---------------------------------------
D----------------|---------------------2---2-0-----------
A----------------|-------------2-4-------------4-2-4-----
E-0--------------|---0--0-3-4------------------------3-4-

a mi quaranta yo le di mi amor
G------------------------|-------------------2---2-0-----------
D-----7------------------|-----------2-4-------------4-2-4-----
A------------------------|-0--0-3-4------------------------3-4-
E-3/5----3/5-5-----3/5-5-|-------------------------------------

"bajame las luces que hace mucho calor"
G----------------|---------------------------------------
D---------2/4-2--|---------------------2---2-0-----------
A----------------|-------------2-4-------------4-2-4-----
E-0------------2-|---0--0-3-4------------------------3-4-

ahh mi popotitos no es un primor
G-------------2/4---|------------0/2----
D-------------------|-------------------
A-2-2-2-2-2-2-----2-|-0-0-0-0-0------0-1
E-------------------|-------------------

pero baila que da pavor
G---------2/4--------|-----------------
D--------------------|-----------------
A-2-2-2-2-----2-0-2--|-0-0-0-0-0-0-0-2-
E--------------------|-----------------

a mi popotitos yo le di mi amor
G---------------------------------------
D---------------------2---2-0-----------
A-------------2-4-------------4-2-4----- x4
E---0--0-3-4------------------------3-4-

FINAL
G---------------------------------------
D-2222222222222-2/4--2/4--2/4--2--------
A---------------------------------------
E---------------------------------------


Video Clip de Popotitos


ACORDES PARA GUITARRA

PIANO UKELELE


TOP 20: Las más tocadas de Seru Giran


Toca una Canción al Azar de Seru Giran

Acordes

Cerrar

08.22

x

73