I Feel Love
Smokie
Acordes

Subida por Kevinp
Álbum: Whose Are These Boots? ( 1990)



Cambiar Cifrado
Americano Latino

Cambiar Tonalidad
-1 +1

Partir Pantalla Imprimir FAQ

+A
-A
-------------------------------------------------------------------------------

     I FEEL LOVE - Smokie
-------------------------------------------------------------------------------
Tabbed by: Joel Bergström, Sundsvall, Sweden 2010-09-14
Email: [email protected]

Tuning: Standard

      A      F#   E     Bm    D
e|----0------2----0------2----2----------------------------------------------|
B|----2------2----0------3----3----------------------------------------------|
G|----2------2----1------4----2----------------------------------------------|
D|----2------4----2------4----0----------------------------------------------|
A|----0-----------2------2---------------------------------------------------|
E|----------------0----------------------------------------------------------|

Intro picking pattern for the first chord, I improvise for the others.
e|---------------------------------------------------------------------------|
B|-------0-2-----------------------------------------------------------------|
G|-----2---------------------------------------------------------------------|
D|---2-----------------------------------------------------------------------|
A|-0-------------------------------------------------------------------------|
E|---------------------------------------------------------------------------|

A
I was five years old
     F#                E
When I first saw her face
       D            A
I can see her now, school yard was the place
         Bm              E
And she took my breath away
      Bm                 E   A
'Cause I felt love that day


A
I was ten years old
      F#
When mama said goodbye
        E                D            A
I was just a boy when I saw my daddy cry
       Bm               E
And it took my breath away
       Bm                E    A
'Cause I felt love that day


F#                        D          A
I'm getting feelings that I can't control
F#         D          A
Are you feeling the same
F#                      D          A
Open my heart, take a look at my soul
     Bm   D   E
And love me again

A
I was seventeen
        F#           E
When I made love to her 
        D                             A
We were lying there, naked, warm and pure
      Bm                 E
And she took my breath away
      Bm                 E   A
When we made love that day


Ref.

During solo:      D     D     A     E    *3
                  D     D     E     E

A
I was twenty-one
        F#
When I held him in my arms
       E
He was my first born
        D                   A
oh the dreams that I had planned
       Bm               E
And he took my breath away
       Bm               E   A
'Cause I held love that day

Oh oh oh oh oh oh oh oh..... 

ACORDES PARA GUITARRA

PIANO UKELELE
A
F#
E
Bm
D


COMENTARIOS

Aún no hay comentarios,

¡escribe el primero!

Escribe una pregunta, duda o comentario sobre esta canción, te responderemos a la brevedad.

Las más tocadas de Smokie

Toca una Canción al Azar de Smokie
A
F#
E
Bm
D