Greatest Hits Intro (Acordes)

Sublime

Subida por sirvilla

Compartir


Imprimir FAQ
+A
-A

Texto

Desplazamiento

Transportador

Color de Fondo

Archivos

-A
+A
I saw a tab for this song and the intro used ska chords and i dont think it gives it the 
sound. Instead for the intro I play it off of an A Maj Chord, and I think it sounds a 
more accurate.

(Listen to the song for the rhrythm its not too hard)
oh and rate my tab and comment it and stuff becuase i hardly ever wright tabs im just 
bored so blehhh here it goes

E-----------------------------|----------------|
B-----------------------------|----------------|
G------------------5--x-x--x-x|--7-5--------5--|
D----------7--7-7--5--x-x--x-x|--7-5-7-7-7--5--|
A-------7--7--7-7-------------|------7-7-7-----|
E-------5---------------------|----------------|

Repeat the phrase before the lines then go to this one

E-----------------------|
B-----------------------|
G-------7--7--7--7--7-7-|
D-------7--7--7--7--7-7-|
A-----------------------|
E-----------------------|

This works best if you just keep your hand in the A Maj chord the whole time thats what 
do hopefully this works. if not i probably tabbed it way wrong because i SUCK at tabbing.

idk why people do this without getting paid its so boring. well, someones gotta do it...

HERRAMIENTAS ACORDESWEB:


LETRA DE LA CANCIÓN:

Ver la letra sola (sin acordes)

OTRAS VERSIONES DE LA MISMA CANCIÓN:

Ver. 2 Ver. 3 Ver. 4 Ver. 5 Ver. 6

DESCARGAR PDF / IMPRIMIR CANCIÓN



ACORDES PARA GUITARRA

PIANO UKELELE


TOP 20: Las más tocadas de Sublime


Toca una Canción al Azar de Sublime

Acordes

Cerrar

16.02

x

153