Slack Motherfucker
Superchunk
Acordes

Subida por Johnasr
Álbum: Superchunk ( 1990)


Más Versiones
Ver. 2 Ver. 3 Ver. 4 Ver. 5 Ver. 6

Cambiar Cifrado
Americano Latino

Cambiar Tonalidad
-1 +1

Partir Pantalla Imprimir FAQ

+A
-A


Ver solo la LETRA

From: * (Joseph L Staton)


here's my attempt at one of my faves. As you might have guessed the
words are only approximations of what I thought I heard...


Intro Lick (play twice- loosely adherent to this rhythm)

|-x-----x-----x--x--x--x-|-x-----x-----x--x--x--x-|-x-----x-----x--x--x--x-|
|-9-----9-----9--9--9--9-|-9-----9-----9--9--9--9-|10----10----10-10-10-10-|
|-9-----9-----9--9--9--9-|-9-----9-----9--9--9--9-|11----11----11-11-11-11-|
|-9-----9-----9--9--9--9-|-9-----9-----9--9--9--9-|11----11----11-11-11-11-|
|-7-----7-----7--7--7--7-|-6-----6-----6--6--6--6-|-9-----9-----9--9--9--9-|
|-0-----0-----0--0--0--0-|-0-----0-----0--0--0--0-|-0-----0-----0--0--0--0-|

-x-----x-----x--x--x--x-|
14----14----14-14-14-14-|
14----14----14-14-14-14-|
14----14----14-14-14-14-|
12----12----12-12-12-12-|
-0-----0-----0--0--0--0-|

Verse:
E E/D#
Had enough of what's right

A B
I've got some des'prate ways (Ya can't smush them)

E E/D#
I'm wastin' my time

A B
I'd like to see you try and get it back


Intro twice (again)


CHORUS:

E E C# C# C# B
I am workin'

E E C# C# C# B
But I'm not working for you

E E C# C# C# B
(Nooooooooo! [2nd time only])

A A A G/A B
Slack Motherf**ker!

Intro twice (again!)

Verse:
When I sit down
I kick the stool right out from under you.
Don't wanna see ya' outside
When I could do the same thing too--

Intro twice (yes, again)

CHORUS

(Killer solo) E D E D E D E D...

Intro twice (yet again!)

CHORUS... (followed by)
A A A G/A B
Slack Motherf**ker!
A A A G/A B
You Motherf**ker! (Repeat and fade)

Chords:

E(7th Fret) E/D#(6th Fret) A B C#(4th fret) G/A
o x o x xo x xo x xo x xoooox
I***** I*IIII IIIIII IIIIII I***** IIIIII
IIIIII IIIIII II***I I***** IIIIII IIIIII
II***I IIIIII IIIIII IIIIII II***I IIIIII
IIIIII II***I IIIIII II***I

D(5th)
o x
I*****
IIIIII
II***I
IIIIII

--
--------------------------------------------------------------------------
Joe Staton *
Department of Biology Joe.S*
University of Michigan
--------------------------------------------------------------------------

ACORDES PARA GUITARRA

PIANO UKELELE


COMENTARIOS

Aún no hay comentarios,

¡escribe el primero!

Escribe una pregunta, duda o comentario sobre esta canción, te responderemos a la brevedad.

Las más tocadas de Superchunk

Toca una Canción al Azar de Superchunk