Fuck The System
System of a Down
Acordes

Subida por brayanSra
Álbum: Steal This Album! ( 2002)


Más Versiones
Ver. 2 Ver. 3 Ver. 4 Ver. 5 Ver. 6

Cambiar Cifrado
Americano Latino

Cambiar Tonalidad
-1 +1

Partir Pantalla Imprimir FAQ

+A
-A
Essa introdução é feita com Harmônicos, mas fica igual fazendo assim.
|----------------------------10--8| |-------------------10--8-|
|---------------------10--10------| |-------------10-10-------| x2
|--------------10--10-------------| |-------10-10-------------|
|-10-10-10--10--------------------| |-10-10-------------------|
|---------------------------------| |-------------------------|
|---------------------------------| |-------------------------|

|-------------8-10-8-10-8-|
|-------------------------|
|-------10-10-------------|
|-10-10-------------------|
|-------------------------|
|-------------------------|

|-------------------------------------|
|-------------------------------------| x4
|-------------------------------------|
|-0-2-3-2-0-0-2-3-2-0-2-3-2-0-0-2-3-2-|
|-0-2-3-2-0-0-2-3-2-0-2-3-2-0-0-2-3-2-|
|-0-2-3-2-0-0-2-3-2-0-2-3-2-0-0-2-3-2-|

|-------------------------------10-8-10-8-|
|---------------------10-8-10-8-----------|
|-----------10-8-10-8---------------------|
|-10-8-10-8-------------------------------|
|-----------------------------------------|
|-----------------------------------------|

|------------------------------------| |-9-9-9-9-|
|------------------------------------| x3 |---------|
|------------------------------------| |---------|
|------------------------------------| |---------|
|------------------------------------| |---------|
|-10-10-8--10-10-8--10-10-8--10-10-8-| |---------|

|---------------------|
|---------------------| x4
|---------------------|
|---------------------|
|-10-8-10-8-10-8-10-8-|
|-10-8-10-8-10-8-10-8-|

|------------------------------------|
|------------------------------------| x4
|------------------------------------|
|------------------------------------|
|------------------------------------|
|-10-10-8--10-10-8--10-10-8--10-10-8-|

|---------------------------------------------------------------------|
|---------------------------------------------------------------------|
|---------------------------------------------------------------------|
|-0-2-3-2--8--8--0-2-3-2--8-8-10-8--0-2-3-2--8--8--8-8-10-8--8-8-10-8-|
|-0-2-3-2--8--8--0-2-3-2--8-8-10-8--0-2-3-2--8--8--8-8-10-8--8-8-10-8-|
|-0-2-3-2--8--8--0-2-3-2--8-8-10-8--0-2-3-2--8--8--8-8-10-8--8-8-10-8-|

|-------------------------------------------------|
|-------------------------------------------------|
|-------------------------------------------------|
|-0-2-3-2--8--8--0-2-3-2--8-8-10-8--0-2-3-2--8--8-|
|-0-2-3-2--8--8--0-2-3-2--8-8-10-8--0-2-3-2--8--8-|
|-0-2-3-2--8--8--0-2-3-2--8-8-10-8--0-2-3-2--8--8-|

|-------------------------------------|
|-------------------------------------| x2
|-------------------------------------|
|-0-2-3-2-0-0-2-3-2-0-2-3-2-0-0-2-3-2-|
|-0-2-3-2-0-0-2-3-2-0-2-3-2-0-0-2-3-2-|
|-0-2-3-2-0-0-2-3-2-0-2-3-2-0-0-2-3-2-|
|----------------------10-10-8-|
|---------------10-10-8--------| x2
|--------10-10-8---------------|
|-10-10-8----------------------|
|------------------------------|
|------------------------------|

|------------------------------------| |-9-9-9-9-|
|------------------------------------| x3 |---------|
|------------------------------------| |---------|
|------------------------------------| |---------|
|------------------------------------| |---------|
|-10-10-8--10-10-8--10-10-8--10-10-8-| |---------|

|---------------------|
|---------------------| x4
|---------------------|
|---------------------|
|-10-8-10-8-10-8-10-8-|
|-10-8-10-8-10-8-10-8-|

|------------------------------------|
|------------------------------------| x4
|------------------------------------|
|------------------------------------|
|------------------------------------|
|-10-10-8--10-10-8--10-10-8--10-10-8-|

|---------------------------------------------------------------------|
|---------------------------------------------------------------------|
|---------------------------------------------------------------------|
|-0-2-3-2--8--8--0-2-3-2--8-8-10-8--0-2-3-2--8--8--8-8-10-8--8-8-10-8-|
|-0-2-3-2--8--8--0-2-3-2--8-8-10-8--0-2-3-2--8--8--8-8-10-8--8-8-10-8-|
|-0-2-3-2--8--8--0-2-3-2--8-8-10-8--0-2-3-2--8--8--8-8-10-8--8-8-10-8-|

|-------------------------------------------------|
|-------------------------------------------------|
|-------------------------------------------------|
|-0-2-3-2--8--8--0-2-3-2--8-8-10-8--0-2-3-2--8--8-|
|-0-2-3-2--8--8--0-2-3-2--8-8-10-8--0-2-3-2--8--8-|
|-0-2-3-2--8--8--0-2-3-2--8-8-10-8--0-2-3-2--8--8-|

|-------------------------------------|
|-------------------------------------| x2
|-------------------------------------|
|-0-2-3-2-0-0-2-3-2-0-2-3-2-0-0-2-3-2-|
|-0-2-3-2-0-0-2-3-2-0-2-3-2-0-0-2-3-2-|
|-0-2-3-2-0-0-2-3-2-0-2-3-2-0-0-2-3-2-|
|----------------------10-10-8-|
|---------------10-10-8--------| x2
|--------10-10-8---------------|
|-10-10-8----------------------|
|------------------------------|
|------------------------------|

|---------------------------------------------------|
|---------------------------------------------------|
|----------------------------------------10-8-10-8--|
|-10-8-10-8--10-10-8-10-10-8--10-8-10-8-------------|
|-10-8-10-8-------------------10-8-10-8-------------|
|-10-8-10-8-------------------10-8-10-8-------------|

|----------------------------------10-8-10-8--------|
|------------10-8-10-8------------------------------|
|---------------------------------------------------|
|-10-8-10-8-------------10-8-10-8-------------------|
|-10-8-10-8-------------10-8-10-8-------------------|
|-10-8-10-8-------------10-8-10-8-------------------|

|--------------------------------------------------------|
|--------------------------------------------------------|
|----------------------------------------10-10-8-10-10-8-|
|-10-8-10-8--10-10-8-10-10-8--10-8-10-8------------------|
|-10-8-10-8-------------------10-8-10-8------------------|
|-10-8-10-8-------------------10-8-10-8------------------|

|--------------------------------------------------|
|--------------------------------------------------|
|----------------------------------10-10-8-10-10-8-|
|-10-8-10-8--10-8-10-8--10-8-10-8------------------|
|-10-8-10-8-------------10-8-10-8------------------|
|-10-8-10-8-------------10-8-10-8------------------|

|----------------------------------10-10-8-10-10-8-|
|------------10-8-10-8-----------------------------|
|--------------------------------------------------|
|-10-8-10-8-------------10-8-10-8------------------|
|-10-8-10-8-------------10-8-10-8------------------|
|-10-8-10-8-------------10-8-10-8------------------|

|--------------------------------------------------|
|--------------------------------------------------|
|----------------------------------------10-8-10-8-|
|-10-8-10-8--10-10-8-10-10-8--10-8-10-8------------|
|-10-8-10-8-------------------10-8-10-8------------|
|-10-8-10-8-------------------10-8-10-8------------|

|----------------------------------------10-8-10-8-|
|------------10-10-8-10-10-8-----------------------|
|--------------------------------------------------|
|-10-8-10-8-------------------10-8-10-8------------|
|-10-8-10-8-------------------10-8-10-8------------|
|-10-8-10-8-------------------10-8-10-8------------|

|------------------------------------| |-9-9-9-9-|
|------------------------------------| x3 |---------|
|------------------------------------| |---------|
|------------------------------------| |---------|
|------------------------------------| |---------|
|-10-10-8--10-10-8--10-10-8--10-10-8-| |---------|

|-------------------------------------|
|-------------------------------------| x2
|-------------------------------------|
|-0-2-3-2-0-0-2-3-2-0-2-3-2-0-0-2-3-2-|
|-0-2-3-2-0-0-2-3-2-0-2-3-2-0-0-2-3-2-|
|-0-2-3-2-0-0-2-3-2-0-2-3-2-0-0-2-3-2-|

ACORDES PARA GUITARRA

PIANO UKELELE


COMENTARIOS

Aún no hay comentarios,

¡escribe el primero!

Escribe una pregunta, duda o comentario sobre esta canción, te responderemos a la brevedad.

Las más tocadas de System of a Down

Toca una Canción al Azar de System of a Down