International Small Arms Traffic Blues
The Mountain Goats
Acordes

Subida por eugge
Álbum: Tallahassee ( 2002)



Cambiar Cifrado
Americano Latino

Cambiar Tonalidad
-1 +1

Partir Pantalla Imprimir FAQ

+A
-A
Album: Tallahassee
Tabbed by: Chris (*)

Standard Tuning

Intro
e--------------------------------------------------------------------------|
B------------------------------------------------------------------------0-|
G--1--------2--1--------2--1--------1--1-1---------2--1--------2--1--------|
D--2--------------------------2-----2--2-2---------------------------2-----|
A--2--2--2--------2--2-----------2--2--2-2---2--2--------2--2--------------|
E--0--------------------------------0--0-0---------------------------------|


Riff 1
e--------------------------------------------------------------------------|
B--------------------------------------------------------------------------|
G--1--------2--1--------2--1--------1--1-1---------2--1--------2--1--------|
D--2--------------------------2-----2--2-2---------------------------2--2--|
A--2--2--2--------2--2-----------2--2--2-2---2--2--------2--2--------------|
E--0--------------------------------0--0-0---------------------------------|


Intro
Riff 1
E A E Riff 1
My love is like a powder keg
E A E B E
My love is like a powder keg in the corner of an empty warehouse
A E
Somewhere just outside of town
B
About to burn down

Riff 1
E A E Riff 1
My love is like a Cuban plane
E A E B E
My love is like a Cuban plane flying from Havana
A E
Up the Florida coast to the 'Glades
B
Soviet made

E A E Riff 1
Our love is like the border between Greece and Albania
E A E
Our love is like the border between Greece and Albania
B E
Trucks loaded down with weapons
A E
Crossing over every night
B
Moon yellow and bright
A E
There is a shortage in the blood supply
A E
But there is no shortage of blood
A E
The way I feel about you baby can't explain it
B E Riff 1
You got the best of my love

ACORDES PARA GUITARRA

PIANO UKELELE


COMENTARIOS

Aún no hay comentarios,

¡escribe el primero!

Escribe una pregunta, duda o comentario sobre esta canción, te responderemos a la brevedad.

Las más tocadas de The Mountain Goats

Toca una Canción al Azar de The Mountain Goats