Compartir


Imprimir FAQ
+A
-A

Texto

Desplazamiento

Transportador

Color de Fondo

Archivos

-A
+A
Intro(Baixo!):
    G
E|---------------------------------------------
B|---------------------------------------------
G|---------------------------------------------
D|---------------------------------------------
A|--5-5-5--7-------------5-5-5--7--------------
E|-----------7-7-7-7-5-7----------7-7-7-7-5-7--

    C
E|---------------------------------------------
B|---------------------------------------------
G|---------------------------------------------
D|---------------------------------------------
A|--5-5-5--7-------------5-5-5--7--------------
E|-----------7-7-7-7-5-7----------7-7-7-7-5-7--

G
I didn't take no shortcuts
I spent the money that I saved up

C
Aw mama runnin' out of luck
Well like my sister don't give a fuck

G
I wanna steal your innocence
To me my life it just don't make sense

C
Aw your strange manners, I love you so
Why won't you wear your new trench coat

G
I should have worked much harder
I should have just not bothered

C
I never show up on weekdays
Somethin' that you learned yesterday

G
Drive you to work, you'll be on time
Your little problems, they're not yours they're mine

C
Come on listen to what I say
I got some secrets that'll make you stay


Am
I just want to turn you down
I just want a turn you around

C
You ain't never had nothin' I want but
                                   Am
I want it all, I just can't figure out
       G
Nothin'

G
And all together it went well
Em
We made pretend we were best friends
G
Then she said "Oh, you're a freak" / "Oh, I can wait"
Em
They ordered me to make mistakes
G
Together again, like the beginnin'
Em
It all works somehow in the end
G
The things we did, the things you hide
Em
But for the record it's between you and I

Solo:
(2x)
E|----------------------------------------------------------------|
G|----------------------------------------------------------------|
B|----2---2---2---2---4---4---4--4---2---2---2---2---0---0---0--0-|    
D|--3---3---3---3--/5---5---5--5---3---3---3---3---2---2---2--2---|
A|----------------------------------------------------------------|
E|----------------------------------------------------------------|

E|-----------------------------------|-----------------|
B|-8b-6-----6-----------|(4x)--------|-----------------|
G|------7-5---7p5-3-----|-5-5-5------|---5---5---5---5-|
D|------------------5-5-|-5-5-5-3-5--|-3-5-3-5-3-5-3-5-|
A|----------------------|-------3-3--|-3-3-3-3-3-3-3-3-|
E|-----------------------------------|-----------------|

E|-3-3-2-2-0-0-2-2-7-7-------------------5-5-------------5-5-------------------------|
B|---------------------7-7-5-5-x(5)-x(5)-----8-8-7-7-8-8-----8-8-7-7-6-6-5-5-4-4-3-3-|
G|-----------------------------------------------------------------------------------|
D|-----------------------------------------------------------------------------------|
A|-----------------------------------------------------------------------------------|
E|-----------------------------------------------------------------------------------|
...ai fica no Sol(G)

Am
I just want to misbehave
I just want to be your slave
C
You ain't got nothin' I want but
I want it all, I just can't
Am
Figure out
Nothin'

HERRAMIENTAS ACORDESWEB:


LETRA DE LA CANCIÓN:

Ver la letra sola (sin acordes)

OTRAS VERSIONES DE LA MISMA CANCIÓN:

Ver. 2 Ver. 3 Ver. 4 Ver. 5 Ver. 6

DESCARGAR PDF / IMPRIMIR CANCIÓN



ACORDES PARA GUITARRA

PIANO UKELELE
G
C
Am
Em


TOP 20: Las más tocadas de The Strokes


Toca una Canción al Azar de The Strokes

Acordes

Cerrar
G
C
Am
Em

22.35


261