Compartir


Imprimir FAQ
+A
-A

Texto

Desplazamiento

Transportador

Color de Fondo

Archivos

-A
+A
Introdução:
|-3-------3-------------------10---------------10-|
|-0-------0-------6-6---8-8--------6-6---8-8------|
|-0-------0---------------------------------------|
|-0-------0---------------------------------------|
|-2-------2---------------------------------------|
|-3-------3---------------------------------------|

Levada: (Riff)
|-------------10---------------10---------------8----------------8-|
|-6-6---8-8--------6-6---8-8--------3-3---6-6-------3-3---6-6------|
|------------------------------------------------------------------|
|------------------------------------------------------------------|
|------------------------------------------------------------------|
|------------------------------------------------------------------|

(Riff)
Soma is what they would take when hard times opened 
their eyes Saw pain in a new way
high stakes for a few names
Racing against sunbeams
Losing against fig trees
In your eyes

      G           Dm
And I  am stop and go In your eyes, see
  G          Dm
I am stop and go In your eyes

O intervalo:                Lets Go
|-3-------3-------3-------3-------------------10---------------10---------------10---------------10-|
|-0-------0-------0-------0-------6-6---8-8--------6-6---8-8--------6-6---8-8--------6-6---8-8------|
|-0-------0-------0-------0-------------------------------------------------------------------------|
|-0-------0-------0-------0-------------------------------------------------------------------------|
|-2-------2-------2-------2-------------------------------------------------------------------------|
|-3-------3-------3-------3-------------------------------------------------------------------------|

(Riff)
When I saw her for the first time
Lips moved as your eyes close
Heard something in his voice
And I'll be there he says
Then he walks out
Somehow he was trying
Too hard to be like them

      G           Dm 
And I  am stop and go in your eyes
      G
And I  am stop
                   Dm
Oh, darling, let me go
                        G
Tried it once and they like it
And tried to hide it
Says I've been doing
this twenty five years

    Dm  
Well I'm, not listening no more
           G 
And these friends they keep asking for more
      Dm
Oh, yeah
                  
Oh, but that's it

Parte Final
|-3-------3-------3-|
|-0-------0-------0-|
|-0-------0-------0-|
|-0-------0-------0-|
|-2-------2-------2-|
|-3-------3-------3-|

HERRAMIENTAS ACORDESWEB:


LETRA DE LA CANCIÓN:

Ver la letra sola (sin acordes)

OTRAS VERSIONES DE LA MISMA CANCIÓN:

Ver. 2 Ver. 3 Ver. 4 Ver. 5 Ver. 6

DESCARGAR PDF / IMPRIMIR CANCIÓN



ACORDES PARA GUITARRA

PIANO UKELELE
G
Dm


TOP 20: Las más tocadas de The Strokes


Toca una Canción al Azar de The Strokes

Acordes

Cerrar
G
Dm

00.17

x

248