A Mais Linda do Hookah (Acordes)

Thiago Brava

Subida por itaTok

Compartir


Cambiar Cifrado
Americano Latino

Cambiar Tonalidad
-1 +1
Imprimir FAQ

Para cambio de tonalidad, zoom, cambio de cifrado, haz clic en este botón


CONSEJO:

Afina tu guitarra antes de tocar. Prueba nuestro afinador en linea.

+A
-A

Texto

Desplazamiento

Transportador

Color de Fondo

Archivos

Mudar para Português

TONALIDAD, TAMAÑO, CIFRADO, SCROL.

Nos renovamos: Ahora puedes cambiar TODO haciendo clic en ICONO de la Guitarra () que aparece en la parte inferior de esta página.


LETRA CON ACORDES

[Intro] C  G  Am  F
        C  G  Am  F

Eb|-----------------------------|
Bb|-----------------------------|
Gb|-----------------------------|
Db|--------5-3-2----------------|
Ab|-3-3--3--------------2-2-3-5-|
Eb|--------------3-3--3---------|

Eb|-----------------------------|
Bb|-----------------------------|
Gb|-----------------------------|
Db|-----------------------------|
Ab|-0-0--0-3-2-0----------------|
Eb|--------------1-1--1-5-5-7-7-|

Eb|-----------------------------|
Bb|-----------------------------|
Gb|-----------------------------|
Db|--------5-3-2----------------|
Ab|-3-3--3--------------2-2-3-5-|
Eb|--------------3-3--3---------|

Eb|-----------------------------|
Bb|-----------------------------|
Gb|-----------------------------|
Db|-----------------------------|
Ab|-0-0--0-3-2-0--------5/8-----|
Eb|--------------1-1--1---------|

[Primeira Parte]

  C
Quem é essa mina
           G
Com esse cheiro de baunilha
    Am                             F
No meio dessa neblina, que eu não consigo enxergar
  C
Quatro da matina
      G                   Am
Já é hora de menina de família tá em casa
          F
Eu vou levar

[Pré-Refrão]

               C  G
Ela pra minha kit
                Am
É só sacada e suíte
      F
Não, não
             C
Num é nada chique
     G                            Am  F
Mas vai ser tipo lobo de Wall Street

[Refrão]

          C
Se for já era
          G
Que mina louca
          Am                     F
Soltando bolinha de fumaça pela boca

          C
Se for já era
             G
?É nóis que tá?
          Am
Pega a visão dessa menina
        F
A mais linda do Hookah

          C
Se for já era
          G
Que mina louca
          Am                     F
Soltando bolinha de fumaça pela boca

          C
Se for já era
             G
?É nóis que tá?
          Am
Pega a visão dessa menina
        F
A mais linda do Hookah

[Solo] C  G  Am  F
       C  G  Am  F

Eb|-----------------------------|
Bb|-----------------------------|
Gb|-----------------------------|
Db|--------5-3-2----------------|
Ab|-3-3--3--------------2-2-3-5-|
Eb|--------------3-3--3---------|

Eb|-----------------------------|
Bb|-----------------------------|
Gb|-----------------------------|
Db|-----------------------------|
Ab|-0-0--0-3-2-0----------------|
Eb|--------------1-1--1-5-5-7-7-|

Eb|-----------------------------|
Bb|-----------------------------|
Gb|-----------------------------|
Db|--------5-3-2----------------|
Ab|-3-3--3--------------2-2-3-5-|
Eb|--------------3-3--3---------|

Eb|-----------------------------|
Bb|-----------------------------|
Gb|-----------------------------|
Db|-----------------------------|
Ab|-0-0--0-3-2-0--------5/8-----|
Eb|--------------1-1--1---------|

[Primeira Parte]

  C
Quem é essa mina
           G
Com esse cheiro de baunilha
    Am                             F
No meio dessa neblina, que eu não consigo enxergar
  C
Quatro da matina
      G                   Am
Já é hora de menina de família tá em casa
          F
Eu vou levar

[Pré-Refrão]

               C  G
Ela pra minha kit
                Am
É só sacada e suíte
      F
Não, não
             C
Num é nada chique
     G                            Am  F
Mas vai ser tipo lobo de Wall Street

[Refrão]

          C
Se for já era
          G
Que mina louca
          Am                     F
Soltando bolinha de fumaça pela boca

          C
Se for já era
             G
?É nóis que tá?
          Am
Pega a visão dessa menina
        F
A mais linda do Hookah

          C
Se for já era
          G
Que mina louca
          Am                     F
Soltando bolinha de fumaça pela boca

          C
Se for já era
             G
?É nóis que tá?
          Am
Pega a visão dessa menina
        F
A mais linda do Hookah

          C
Se for já era
          G
Que mina louca
          Am                     F
Soltando bolinha de fumaça pela boca

          C
Se for já era
             G
?É nóis que tá?
          Am
Pega a visão dessa menina
        F
A mais linda do Hookah

          C
Se for já era
          G
Que mina louca
          Am                     F
Soltando bolinha de fumaça pela boca

          C
Se for já era
             G
?É nóis que tá?
          Am
Pega a visão dessa menina
        F
A mais linda do Hookah

[Solo] C  G  Am  F
       C  G  Am  F  C

Eb|-----------------------------|
Bb|-----------------------------|
Gb|-----------------------------|
Db|--------5-3-2----------------|
Ab|-3-3--3--------------2-2-3-5-|
Eb|--------------3-3--3---------|

Eb|-----------------------------|
Bb|-----------------------------|
Gb|-----------------------------|
Db|-----------------------------|
Ab|-0-0--0-3-2-0----------------|
Eb|--------------1-1--1-5-5-7-7-|

Eb|-----------------------------|
Bb|-----------------------------|
Gb|-----------------------------|
Db|--------5-3-2----------------|
Ab|-3-3--3--------------2-2-3-5-|
Eb|--------------3-3--3---------|

Eb|-----------------------------|
Bb|-----------------------------|
Gb|-----------------------------|
Db|-----------------------------|
Ab|-0-0--0-3-2-0----------------|
Eb|--------------1--------------|

Video Clip de A Mais Linda do Hookah


ACORDES PARA GUITARRA

PIANO UKELELE
C
G
Am
F


TOP 20: Las más tocadas de Thiago Brava


Acordes

Cerrar
C
G
Am
F

18.25


103