Coração de Guardanapo (Acordes)

Thiago Brava

Subida por Abelardo

Compartir


Cambiar Cifrado
Americano Latino

Cambiar Tonalidad
-1 +1
Imprimir FAQ

Para cambio de tonalidad, zoom, cambio de cifrado, haz clic en este botón


CONSEJO:

Afina tu guitarra antes de tocar. Prueba nuestro afinador en linea.

+A
-A

Texto

Desplazamiento

Transportador

Color de Fondo

Archivos

Mudar para Português

TONALIDAD, TAMAÑO, CIFRADO, SCROL.

Nos renovamos: Ahora puedes cambiar TODO haciendo clic en ICONO de la Guitarra () que aparece en la parte inferior de esta página.


LETRA CON ACORDES

[Intro] G  D9/F#  Em  C9

E|---------------------------------------------------|
B|---------------------------------------------------|
G|---5/7--5-4---2/4--5-4------5/7--5-4---2/4--5-4----|
D|-5----------7----------7--5----------7----------7--|
A|---------------------------------------------------|
E|---------------------------------------------------|

E|---------------------------------------------------|
B|---------------------------------------------------|
G|---5/7--5-4----------------------------------------|
D|-5-----------7--2-4-5-7/9--2~----------------------|
A|---------------------------------------------------|
E|---------------------------------------------------|

[Primeira Parte]

G
 Só não te dou tudo que tenho
D9/F#
     Porque nunca tive nada
    Em                                           C9
Por isso apelidei meu coração de mega sena acumulada

G
 Pois ele é tudo que tenho
D9/F#
     E você foi a sorteada
Em
  Pensa bem no que cê vai
                  C9
Fazer com essa bolada

[Pré-Refrão]

          G
Não vai sair por aí
                          D9/F#
Gastando ele de qualquer jeito
Não vai sair
                       Em
Emprestando ele "pros" outros
           C9
Porque dinheiro e coração
Não aguenta desaforo

[Refrão]

    G
Deixei meu número anotado
    D/F#
No coração de guardanapo
    Em
Desculpa parecer folgado
           C9
Mas não deu
       D
Tô te dando tudo que é meu

    G
Deixei meu número anotado
    D/F#
No coração de guardanapo
    Em
Desculpa parecer folgado
           C9
Mas não deu
       D
Tô te dando tudo que é meu

[Solo] G  D/F#  Em  C9

E|---------------------------------------------------|
B|---------------------------------------------------|
G|---5/7--5-4---2/4--5-4------5/7--5-4---2/4--5-4----|
D|-5----------7----------7--5----------7----------7--|
A|---------------------------------------------------|
E|---------------------------------------------------|

E|---------------------------------------------------|
B|---------------------------------------------------|
G|---5/7--5-4---------------7/9--9/12----------------|
D|-5-----------7--2-4-5-7/9--------------------------|
A|---------------------------------------------------|
E|---------------------------------------------------|

[Primeira Parte]

G
 Só não te dou tudo que tenho
D9/F#
     Porque nunca tive nada
    Em                                           C9
Por isso apelidei meu coração de mega sena acumulada

G
 Pois ele é tudo que tenho
D9/F#
     E você foi a sorteada
Em
  Pensa bem no que cê vai
                  C9
Fazer com essa bolada

[Pré-Refrão]

          G
Não vai sair por aí
                          D9/F#
Gastando ele de qualquer jeito
Não vai sair
                       Em
Emprestando ele "pros" outros
           C9
Porque dinheiro e coração
Não aguenta desaforo

[Refrão]

    G
Deixei meu número anotado
    D/F#
No coração de guardanapo
    Em
Desculpa parecer folgado
           C9
Mas não deu
       D
Tô te dando tudo que é meu

    G
Deixei meu número anotado
    D/F#
No coração de guardanapo
    Em
Desculpa parecer folgado
           C9
Mas não deu
       D
Tô te dando tudo que é meu

    G
Deixei meu número anotado
    D/F#
No coração de guardanapo
    Em
Desculpa parecer folgado
           C9
Mas não deu
       D                G
Tô te dando tudo que é meu

[Final]

E|---------------------------------------------------|
B|---------------------------------------------------|
G|-2/4-2-------0-------------------------------------|
D|-------5p2p0---------------------------------------|
A|---------------------------------------------------|
E|---------------------------------------------------|

Video Clip de Coração de Guardanapo


ACORDES PARA GUITARRA

PIANO UKELELE
G
D9/F#
Em
C9
D/F#
D


TOP 20: Las más tocadas de Thiago Brava


Acordes

Cerrar
G
D9/F#
Em
C9
D/F#
D

00.28


145