Turn This Car Around
Tom Petty
Acordes

Subida por CLEYBERj
Álbum: Highway Companion ( 2006)



Cambiar Cifrado
Americano Latino

Cambiar Tonalidad
-1 +1

Partir Pantalla Imprimir FAQ

+A
-A
   A               A7           D*          A

e|-----------------------------------------------------|
B|-------2h3--3--------3--3-------3---3------2h3--3----|
G|-------2-------------0----------0h2--------2---------|
D|-------2-------------2------0-0------------2---------|
A|-------0--------0-0------------------------0---------|
E|-0-0----------------------------------0-0------------|

Verse
   A              A7                   D*                 A
Save a dream for me  Words hang in the air  Her demons take the dare  
   A            A7                        D                      A
Above the lonely feather circles to the ground The house don't make a sound
G       D                   A 
           Turn this car around  
G       D                   A 
           Turn this car around  

Bridge
        (E)   (D)   (A)
e|-------0-----0-----0------------|
B|-------0-----0-----0------------|
G|-------9-----7-----2------------|
D|-------9-----7-----2------------|
A|-------7-----5-----0------------|
E|--------------------------------|

          (E)   (D)   (A)
          I'm going back            
          (E)   (D)   (A)
          I'm going back

  C#m    G#    Aadd9    E   F#(with open B sting)
 yeah  yeah                     hey  hey

F#(with open B sting)

ACORDES PARA GUITARRA

PIANO UKELELE
A
A7
D
G
E
C#m
G#
Aadd9
F#
B


COMENTARIOS

Aún no hay comentarios,

¡escribe el primero!

Escribe una pregunta, duda o comentario sobre esta canción, te responderemos a la brevedad.

Las más tocadas de Tom Petty

Toca una Canción al Azar de Tom Petty
A
A7
D
G
E
C#m
G#
Aadd9
F#
B