c ▷ AS MOÇINHAS DE CIDADE: (Tonico e Tinoco) Acordes para Guitarra, Piano & Ukelele

As Moçinhas de Cidade (Acordes)

Tonico e Tinoco

Subida por Nayade

Compartir


Imprimir FAQ
+A
-A

Texto

Desplazamiento

Transportador

Color de Fondo

Archivos

-A
+A
(pista 1)

D ||----------------------|----------------------|----------------------|
A ||--0----0----0----0----|--0-------------------|----------------------|
F#||--3----0----0----0----|--1----0--------------|--5----5----3----3----|
D ||--4----0----0----0----|--2----0----2----0----|--5----5----4----4----|
A ||--0----0----0----0----|--0----0----4----0----|--0-------------------|

----------------------|-------||----------------------|----------------------|
----------------------|------*||----------------------|----------------------|
--1----0----0----0----|-------||--3----1----0----3----|--5----3----3----1----|
--2----0----0----0----|------*||--4----2----0----4----|--5----4----4----2----|
-------0----0----0----|-------||----------------------|----------------------|

----------------------|------------------||----------------------|
----------------------|-----------------*||----------------------|
--7----7----7----8----|--7----5----3-----||--0----1----3----5----|
--7----7----7----9----|--7----5----4----*||--0----2----4----5----|
----------------------|------------------||----------------------|

----------------------|----------------------|----------------------|
----------------------|----------------------|----------------------|
--5----7----5----5----|--3----3----1----3----|--3----5----7----5----|
--5----7----5----5----|--4----4----2----4----|--4----5----7----5----|
----------------------|----------------------|----------------------|

------------------||
-----------------*||
--3----1----0-----||
--4----2----0----*||
------------------||

Video Clip de As Moçinhas de Cidade


ACORDES PARA GUITARRA

PIANO UKELELE
D
A
F#


TOP 20: Las más tocadas de Tonico e Tinoco


Acordes

Cerrar
D
A
F#

17.05

x

190