Cousins
Vampire Weekend
Acordes

Subida por alegriaj1706
Álbum: Contra ( 2010)


Más Versiones
Ver. 2 Ver. 3 Ver. 4 Ver. 5 Ver. 6

Cambiar Cifrado
Americano Latino

Cambiar Tonalidad
-1 +1

Partir Pantalla Imprimir FAQ

+A
-A
Intro 2x:

E|-----------------------|--------------------------|
B|----------5------------|----------5-5-5-----------|
G|---1---3--3------------|---1---3--3-3-3-----------|
D|-2---4----4------------|-2---4----4-4-4-----------|
A|-----------------------|--------------------------|
E|-----------------------|--------------------------|

E|-----------------------|--------------------------|
B|----------5------------|----------4---------------|
G|---1---3--3------------|---1---3--4---------------|
D|-2---4----4------------|-2---4----4---------------|
A|-----------------------|--------------------------|
E|-----------------------|--------------------------|

E|-----------------------|--------------------------|
B|----------5------------|----------5---------------|
G|---1---3--3------------|---1---3--3---------------|
D|-2---2----4------------|-2---2----4---------------|
A|-----------------------|--------------------------|
E|-----------------------|--------------------------|
(2x)
E|-----------------------|--------------------------|
B|----------5------------|----------4---------------|
G|---1---3--3------------|---1---3--4---------------|
D|-2---2----4------------|-2---2----4---------------|
A|-----------------------|--------------------------|
E|-----------------------|--------------------------|


Versos (Baixo):

G|---------------------| G|-------------------|
D|---------------------|(3x) D|-------------------|
A|-7-9-9-16-16-16-16-7-| A|-7-9-9-----------7-|
E|---------------------| E|---------7-7-7-7---|


Interlúdio 2x:
E|--12-12-12-12-11-11-11-11-9-9-9-9-7-7-7-7-6-6-6-6----------------|
B|-----------------------------------------------------------------|
G|-----------------------------------------------------------------|
D|-----------------------------------------------------------------|
A|-----------------------------------------------------------------|
E|-----------------------------------------------------------------|

E|--7777-6666-4444-2222-4444-0000----------------|
B|--------------------------------4h5p4h5p4s2p0--|
G|-----------------------------------------------|
D|-----------------------------------------------|
A|-----------------------------------------------|
E|-----------------------------------------------|

Versos:
G|---------------------| G|-------------------|
D|---------------------|(3x) D|-------------------|
A|-7-9-9-16-16-16-16-7-| A|-7-9-9-----------7-|
E|---------------------| E|---------7-7-7-7---|

Refrão:
E|--------------------------------------------------------------------------|
B|-5----------------5------------------------5-------------------------4----|
G|-4----------------4------------------------3-------------------------4----| (2x)
D|-2----------------2------------------------4-------------------------4----|
A|--------------------------------------------------------------------------|
E|--------------------------------------------------------------------------|
Me and my cousins and your and you cousins its line that always running

Interlúdio:
E|--12-11---------------|
B|--------11-10---------|
G|--------------11-10-9-| (6x)
D|----------------------|
A|----------------------|
E|----------------------|

E|-----------------------------------------|
B|-16--------------------------------------|
G|-----------------------------------------| (4x)
D|-----------------------------------------|
A|-----------------------------------------|
E|-----------------------------------------|
You can throw your back on the bitter wood.

Refrão:
E|--------------------------------------------------------------------------|
B|-5----------------5------------------------5-------------------------4----|
G|-4----------------4------------------------3-------------------------4----| (4x)
D|-2----------------2------------------------4-------------------------4----|
A|--------------------------------------------------------------------------|
E|--------------------------------------------------------------------------|
Me and my cousins and your and you cousins its line that always running

Interlúdio 2x:
E|--12-12-12-12-11-11-11-11-9999-7777-6666----------------|
B|--------------------------------------------------------|
G|--------------------------------------------------------|
D|--------------------------------------------------------|
A|--------------------------------------------------------|
E|--------------------------------------------------------|

E|--7777-6666-4444-2222-4444-0000----------------|
B|--------------------------------4h5p4h5p4s2p0--|
G|-----------------------------------------------|
D|-----------------------------------------------|
A|-----------------------------------------------|
E|-----------------------------------------------|

Outro:
E|---------------------------|
B|---------------------------|
G|-8--9--8-11--9-8--6-8--4---|
D|---------------------------|
A|---------------------------|
E|---------------------------|

E|---------------------------|
B|---------------------------|
G|-8--9--8-11--9-8--6-8--4-6-|
D|---------------------------|
A|---------------------------|
E|---------------------------|

ACORDES PARA GUITARRA

PIANO UKELELE


COMENTARIOS

Aún no hay comentarios,

¡escribe el primero!

Escribe una pregunta, duda o comentario sobre esta canción, te responderemos a la brevedad.

Las más tocadas de Vampire Weekend

Toca una Canción al Azar de Vampire Weekend