Quando Você Some (Acordes)

Victor e Leo

Subida por Hector

Compartir


Cambiar Cifrado
Americano Latino

Cambiar Tonalidad
-1 +1
Imprimir FAQ
+A
-A

Texto

Desplazamiento

Transportador

Color de Fondo

Archivos

TONALIDAD, TAMAÑO, CIFRADO, SCROL.

Nos renovamos: Ahora puedes cambiar TODO haciendo clic en ICONO de la Guitarra () que aparece en la parte inferior de esta página.


LETRA CON ACORDES

Intro: G  C/G 4x G


Primeira Parte:

                    G  C/G  G
Quando você some assim
                           C
Queria não pensar que vai voltar
                            Am  A9  Am
Prefiro encarar que seja o fim
    C                             G
Prefiro que não volte a me encontrar
C/G G                           G  C/G
      Queria que não fosse como é
G                               C
  Nem sei se tudo isso é de verdade
                             Am  A9  Am
Só nos falamos quando você quer
         C                  G  C/G  G
Enquanto isso, morro de saudade


Segunda Parte:

                     C
Preciso te olhar nos olhos
                Am  A9  Am
E sem chorar dizer
  G   C/G  G
Adeus
                       C
Mas quando você chega perto
                Am
Meus olhos e palavras
              D   D9  D
Não são mais meus


Refrão:

           C          D   D9  D
Preciso dizer que preciso
    G                       C
Sentir verdade no que você diz e faz
              Am   A9  Am
Ou me leve a sério
         C
Ou vá embora
             G   C/G  G
E não volte mais

           C          D   D9  D
Preciso dizer que preciso
    G                       C
Sentir verdade no que você diz e faz
              Am   A9  Am
Ou me leve a sério
         C
Ou vá embora
             G   C/G  G
E não volte mais


Solo:

1
E|----------------------------------------------------|
B|-1/3-3-3-31--1--1---------0------------------------|
G|-2/4-4-4-42--0--0h2p0-----0------------------------|
D|------------------------2---------------------------|
A|----------------------------------------------------|
E|----------------------------------------------------|

2
E|-----3---5---5/7---75-3-----3-3~-------------------|
B|-3/5-----------------------5----~-------------------|
G|----------------------------------------------------|
D|----------------------------------------------------|
A|----------------------------------------------------|
E|----------------------------------------------------|

3
E|----------------------------------------------------|
B|------1p0---------0------1p0------------------------|
G|----------2-0-0h2------------2-0-0h2-0--------------|
D|-0-2----------------2------------------2------------|
A|----------------------------------------------------|
E|----------------------------------------------------|

4
E|------3-3~------3--5--5/7~--------------------------|
B|-3/5----------3-----------------~-------------------|
G|------------4---------------------------------------|
D|----------------------------------------------------|
A|----------------------------------------------------|
E|----------------------------------------------------|




Base do Solo:

G C/G G C Am A9 Am C G  C/G

Repete a Primeira Parte:

G                           G  C/G
  Queria que não fosse como é
G                               C
  Nem sei se tudo isso é de verdade
                             Am  A9  Am
Só nos falamos quando você quer
         C                  G  C/G  G
Enquanto isso, morro de saudade



Repete a Segunda Parte:

                     C
Preciso te olhar nos olhos
                Am  A9  Am
E sem chorar dizer
  G   C/G  G
Adeus
                       C
Mas quando você chega perto
                Am
Meus olhos e palavras
              D   D9  D
Não são mais meus


Refrão Final:

           C          D   D9  D
Preciso dizer que preciso
    G                       C
Sentir verdade no que você diz e faz
              Am   A9  Am
Ou me leve a sério
         C
Ou vá embora
             G   C/G  G
E não volte mais

           C          D   D9  D
Preciso dizer que preciso
    G                       C
Sentir verdade no que você diz e faz
              Am   A9  Am
Ou me leve a sério
         C
Ou vá embora
             G   C/G  G
E não volte mais
              Am   A9  Am
Ou me leve a sério
         C
Ou vá embora
                 G
E não volte mais

Video Clip de Quando Você Some


ACORDES PARA GUITARRA

PIANO UKELELE
G
C/G
C
Am
A9
D
D9


TOP 20: Las más tocadas de Victor e Leo


Acordes

Cerrar
G
C/G
C
Am
A9
D
D9

05.23

x

128