Tem Que Ser Você (Acordes)

Victor e Leo

Subida por cachalfa

Compartir


Cambiar Cifrado
Americano Latino

Cambiar Tonalidad
-1 +1
Imprimir FAQ
+A
-A

Texto

Desplazamiento

Transportador

Color de Fondo

Archivos

TONALIDAD, TAMAÑO, CIFRADO, SCROL.

Nos renovamos: Ahora puedes cambiar TODO haciendo clic en ICONO de la Guitarra () que aparece en la parte inferior de esta página.


LETRA CON ACORDES

[Intro] C  G/B  C  G/B
        C  G/B  C  G/B
        C  G/B  C  G/B
        C  G/B  C  G/B

  C      G/B     C      G/B
E|----------3------3------3-----------------|
B|-1------3------1------3-------------------|
G|---0--------------------------------------|
D|------------------------------------------|
A|-3---x--2---x--3---x--2---x---------------|
E|-----x------x------x------x---------------|

[Primeira Parte]

C      G/B     C  G/B
  Um dia seus pés
C      G/B  C  G/B
  Vão me levar
C          G/B    C  G/B
  Onde as minhas mãos
C        G/B    C  G/B
  Não podem chegar

[Segunda Parte]

F    C/E  Dm    Dm/C  G  
 Me leva  onde você  for
F         C/E   Dm       Dm/C  G
 Estarei muito só sem o seu  amor
F  C/E  Dm   Dm/C  G
 Agora  é a hora     de dizer

[Refrão]

C      G  Am        F
  Que ho_____je eu te amo
C  G         Am  F
  Não vou negar
C     G  Am      F     C  G        Am
  Que o____utra pessoa   não servirá
         F
Tem que ser você
          G
Sem por que, sem pra que
         F
Tem que ser você
     G
Sem ser necessário entender

C  G/B  C  G/B )
C  G/B  C  G/B )

[Solo] C  G  Am  F 
       C  G  Am  F 
       C  G  Am  F 
       C  G  C 

E|------------------------------------------|
B|-------------------------1~---1~----------|
G|-0h2-0-----------------2----2-------------|
D|-------2-0h2-0---0------------------------|
A|---------------3---3~---------------------|
E|------------------------------------------|

E|------------------------------------------|
B|---1---1h3/5--5-53-1-1-------------------|
G|-2---2--------5-52-2-2--2-0-0h2----------|
D|---------------------------------2-0------|
A|------------------------------------------|
E|------------------------------------------|

E|-----------------3-----5-----7------------|
B|-------------3/5---5/6---6/8---8----------|
G|---------0h2------------------------------|
D|-------2----------------------------------|
A|-0-2-3------------------------------------|
E|------------------------------------------|

E|-1p0---------------3~---------------------|
B|-----1-1~---------------------------------|
G|-----------0-2-2/4------------------------|
D|------------------------------------------|
A|------------------------------------------|
E|------------------------------------------|

[Segunda Parte]

F    C/E  Dm    Dm/C  G  
 Me leva  onde você  for
F         C/E   Dm       Dm/C  G
 Estarei muito só sem o seu  amor
F  C/E  Dm   Dm/C  G
 Agora  é a hora     de dizer

[Refrão]

C      G  Am        F
  Que ho_____je eu te amo
C  G         Am  F
  Não vou negar
C     G  Am      F     C  G        Am
  Que o____utra pessoa   não servirá
         F
Tem que ser você
          G
Sem por que, sem pra que
         F
Tem que ser você
     G
Sem ser necessário entender

C      G  Am        F
  Que ho_____je eu te amo
C  G         Am  F
  Não vou negar
C     G  Am      F     C  G        Am
  Que o____utra pessoa   não servirá
         F
Tem que ser você
          G
Sem por que, sem pra que
         F
Tem que ser você
     G
Sem ser necessário entender

[Final] C  G/B  C  G/B
        C  G/B  C  G/B
        C  G/B  C  G/B 
        C  G/B  C  G/B  C

Video Clip de Tem Que Ser Você


ACORDES PARA GUITARRA

PIANO UKELELE
C
G/B
F
C/E
Dm
Dm/C
G
Am


TOP 20: Las más tocadas de Victor e Leo


Acordes

Cerrar
C
G/B
F
C/E
Dm
Dm/C
G
Am

19.38

x

115