Vai Me Perdoando (Acordes)

Victor e Leo

Subida por GARERE

Compartir


Cambiar Cifrado
Americano Latino

Cambiar Tonalidad
-1 +1
Imprimir FAQ
+A
-A

Texto

Desplazamiento

Transportador

Color de Fondo

Archivos

TONALIDAD, TAMAÑO, CIFRADO, SCROL.

Nos renovamos: Ahora puedes cambiar TODO haciendo clic en ICONO de la Guitarra () que aparece en la parte inferior de esta página.


LETRA CON ACORDES

Capotraste na 2º casa

Intro:

E|--------------------|--------------------|
B|--------------------|--------------------|
G|-11-11--------------|-11-11--------------|
D|-------11--11-11-11-|-------11--11-11-11-|
A|--------------------|--------------------|
E|--------------------|--------------------|

E|--------------------|--------------------|
B|--------------------|--------------------|    
G|--------------------|--------------------|
D|-12-12--------------|-12-12--------------|
A|-------12--12-12-12-|-------12--12-12-12-|
E|--------------------|--------------------|

E|--------------------|--------------------|
B|--------------------|--------------------|    
G|--------------------|--------------------|
D|-11-11--------------|-11-11--------------|
A|-------12--12-12-12-|-------12--12-12-12-|
E|--------------------|--------------------|

E|--------------------|--------------------|
B|--------------------|--------------------|    
G|--------------------|--------------------|
D|-9-9----------------|-9-9----------------|
A|-------7--7-7-7-----|-------7--7-7-7-----|
E|--------------------|--------------------|




        Em                                                  C
Vai me perdoando esse meu jeito estranho eu sei que fez você sofrer
                                       G
Tudo era mentira e você quis pagar pra ver                
                          D
Sei que é a hora, hora de dizer adeus
          Em                                                 C
Vai me perdoando esquece aqueles planos tudo que eu te prometi
                                       G
Sei que é difícil encarar que seja o fim
                           D
Mas vai me perdoando, enfim


Refrão:

     Em
Vai perdoando alguém que sempre só quis o seu bem
            C
E vai lembrando que o ser humano erra também
              G                               D
Nunca mais chore por amor, perdoa por favor, entenda
       Em
Vai perdoando que o destino te trará alguém
            C
E com os anos você vai se esquecer meu bem
              G                            D
Nunca mais chore por amor, perdoa por favor, entenda



E|-----------------------------------|-------------------------------------|
B|-----------------------------------|-------------------------------------|
G|---------9/7-----7/6-----6/4--4----|--9--9--/7----7/6----6/4--2?4h2---2--|
D|--2-2-2-------2-------2---------2--|------------2------2------------4----|
A|-----------------------------------|-------------------------------------|
E|-----------------------------------|-------------------------------------|

E|-------------------------------5~~-|--7--5--7/9--9-10-9--7-7-------14-12-14/16|
B|--3-3--3---5---7---5---3---2---5~~-|-------------------------5-5~-------------|       
G|-----------------------------------|------------------------------------------|
D|--4-4--4---5---7---5---4---2-------|------------------------------------------|
A|-----------------------------------|------------------------------------------|
E|-----------------------------------|------------------------------------------|




          Em                                                  C
Vai me perdoando esse meu jeito estranho eu sei que fez você sofrer
                                       G
Tudo era mentira e você quis pagar pra ver                
                           D
Sei que é a hora, hora de dizer adeus
          Em                                                 C
Vai me perdoando esquece aqueles planos tudo que eu te prometi
                                       G
Sei que é difícil encarar que seja o fim
                           D
Mas vai me perdoando, enfim

Refrão(2x):

     Em
Vai perdoando alguém que sempre só quis o seu bem
            C
E vai lembrando que o ser humano erra também
              G                               D
Nunca mais chore por amor, perdoa por favor, entenda
       Em
Vai perdoando que o destino te trará alguém
            C
E com os anos você vai se esquecer meu bem
              G                             D
Nunca mais chore por amor, perdoa por favor, entenda

           Em (deixa soar)
Vai me perdoando...

Video Clip de Vai Me Perdoando


ACORDES PARA GUITARRA

PIANO UKELELE
Em
C
G
D


TOP 20: Las más tocadas de Victor e Leo


Acordes

Cerrar
Em
C
G
D

19.28

x

214