Imposible (Victor García) Acordes

Álbum: Cuando amar duele (2009)



Más Versiones de esta Canción | Ver. 2 |

Cambiar Cifrado: |SOL > G| - |G > SOL|

BAJAR UN TONO BAJAR UN SEMI-TONO SUBIR UN SEMI-TONO SUBIR UN TONO PARTIR PANTALLA EN VERTICAL PARTIR PANTALLA EN VERTICAL ¡Ayuda!
-A
+A
                                                          A
E -----------9--7--9--7------|-----9--7--9--7-------------0-
B ---10~-10------------9--10-|-10~------------9--10--9--7-2-
G ---------------------------|----------------------------2-
D ---------------------------|----------------------------2-
A ---------------------------|----------------------------0-
E ---------------------------|----------------------------0-

A E F#m
Quise buscar a tu cuerpo un corazón
C#m D
que el sol saliera por otra dirección
Bm E
que me quisieras a muerte como yo

A E F#m
Quise encontrar una aguja en un pajar
C#m D Bm
quise cambiar las estrellas de lugar
E
te quise amar

A
Y fue imposible
E F#m
compartir el cielo fue imposible
C#m D
derretir el hielo de tu alma
Bm E
conservar la calma en medio del dolor
A
imposible
E F#m
como echar raíces en el aire
C#m D
porque en las venas llevas mala sangre
Bm E A
es imposible, imposible quedarme

A
E -----------9--7--9--7------|-----9--7--9--7-------------0-
B ---10~-10------------9--10-|-10~------------9--10--9--7-2-
G ---------------------------|----------------------------2-
D ---------------------------|----------------------------2-
A ---------------------------|----------------------------0-
E ---------------------------|----------------------------0-

-- Se repiten los acordes A, E, F#m, C#m, D, Bm, E en toda la canción --



Quise lavar con mi llanto tu maldad
pero me harte de tu amor a la mitad
hoy te condeno a vivir en soledad

Y fue imposible
compartir el cielo fue imposible
derretir el hielo de tu alma
conservar la calma en medio del dolor
imposible
como echar raíces en el aire
porque en las venas llevas mala sangre
es imposible, imposible quedarme

Y fue imposible
compartir el cielo fue imposible
derretir el hielo de tu alma
conservar la calma en medio del dolor
imposible
como echar raíces en el aire
porque en las venas llevas mala sangre
es imposible, imposible quedarme

- Iván ibarra -



¡Siguiente!

Toca una Canción al Azar de Victor García

Inicia Sesión para guardar
esta versión como favorita

DESCARGAS:
Descargar
(Imposible .pdf)


Aún no hay comentarios, ¡escribe el primero!

Escribe un comentario o pregunta sobre esta canción:






Más canciones de Victor García

Vives en mí
Nunca Voy A Olvidarte
Quisiera ser madera
Desvelado
Tu Olvido
Maldita Luna
Los Sánchez
Arráncame
Me estoy enamorando
Gente buena
Sin Ti
Usted se me llevó la vida
De que sirvió
Vuelve
Sueltate El Pelo
Enamorado
Y a hora te vas
Tu carcel
Como Duele
Alma de niña

Siguiente


ABRIR ACORDES

Nuestro servidor se demoró 0.88 segundos en generar esta página. La velocidad Justa!