Lo dejaría todo (Victor García) Acordes



Más Versiones de esta Canción | Ver. 2 |

Cambiar Cifrado: |SOL > G| - |G > SOL|

BAJAR UN TONO BAJAR UN SEMI-TONO SUBIR UN SEMI-TONO SUBIR UN TONO PARTIR PANTALLA EN VERTICAL PARTIR PANTALLA EN VERTICAL ¡Ayuda!
-A
+A
ESTA CANCION SE LA DEDICO A TODOS MIS AMIGOS DE PEBLA
(GAVO, OSO, NACA, LARGO, CANTI, AIDEE, ETC.) PERO EN ESPECIAL A
MI LUPE (BENJA). ¡NO ES CIERTO! ENESPECIAL A JESSICA

Am D
E-2-1------/--------------------------
B-3-2-2-1--/-2-3-3h5-----5-5-3-3-2-1-0
G---------O/--------------------------
D----------/--------------------------
A----------/--------------------------
E----------/--------------------------

G C
E-------------------------------------
B-0-1-2h3-3-3-1-1-0-------------------
G-------------------4-2---------------
D-------------------------------------
A-------------------------------------
E-------------------------------------

(SE REPITE)

Am D
He intentado casi todo para convencerte
G C
Mientras el mundo se derrumba todo aquí a mis pies
Am D
Mientras aprendo de esta soledad que desconozco
G C
Me vuelvo a preguntar quizá si sobreviviré
Am D
Porque sin ti me queda la conciencia helada y vacía
G C
Porque sin ti me he dado cuenta amor que no renaceré
Am D
Porque yo he ido mas allá del límite de la desolación
Am C Am
Mi cuerpo, mi mente y mi alma ya no tienen conexión
D
Y yo te juro que...


Coro
G
Lo dejaría todo por que quedaras
C
Mi credo mi pasado mi religión
Am
Después de todo estás rompiendo nuestros lazos
D
Y dejas en pedazos este corazón
Am
Mi piel también la dejaría
C
Mi nombre mi fuerza
Am G - D - Em
Hasta mi propia vida
Am D
Y que mas da perder si te llevaste todo mi fe
C Am - C - Em
Que no dejaría...


Intro
Am D
E-2-1------/--------------------------
B-3-2-2-1--/-2-3-3h5-----5-5-3-3-2-1-0
G---------O/--------------------------
D----------/--------------------------
A----------/--------------------------
E----------/--------------------------

G C
E-------------------------------------
B-0-1-2h3-3-3-1-1-0-------------------
G-------------------4-2---------------
D-------------------------------------
A-------------------------------------
E-------------------------------------

Am D
Duelen mas tus cosas buenas cuando estas ausente
G C
Yo se que es demasiado tarde para remediar
Am D
No me queda bien valerme de diez mil excusas
G C
Cuando definitivamente se que ahora te vas
Am D
Aunque te vuelva a repetir que estoy muriendo día a día
G C
Aunque también estés muriendo tu, no me perdonarás
Am D
Aunque sin ti halla llegado al límite de la desolación
Am C Am
Mi cuerpo, mi mente y mi alma ya no tienen conexión
D
Sigo muriéndome...


Coro
G
Lo dejaría todo por que quedaras
C
Mi credo mi pasado mi religión
Am
Después de todo estás rompiendo nuestros lazos
D
Y dejas en pedazos este corazón
Am
Mi piel también la dejaría
C
Mi nombre mi fuerza
Am G - D - Em
Hasta mi propia vida
Am D
Y que mas da perder si te llevaste todo mi fe
G
Lo dejaría todo por que quedaras.....SE REPITE

SALUDOS A NAYELY
NAYELY, EL OSO TE QUIERE MUCHO



¡Siguiente!

Toca una Canción al Azar de Victor García

Inicia Sesión para guardar
esta versión como favorita

DESCARGAS:
Descargar
(Lo dejaría todo .pdf)


Aún no hay comentarios, ¡escribe el primero!

Escribe un comentario o pregunta sobre esta canción:






Más canciones de Victor García

Ata
Me haces bien
Sueltate El Pelo
Palabras Tristes
Rosas Blancas
Sirena
Ayer te pedí
Otra Vez
Ni una lágrima más
Vives en mí
Sin Ti
Usted se me llevó la vida
Me estoy enamorando
Mentirosa
Amorcito Corazón
Procura
Como Duele
Y a hora te vas
Tu Olvido
Mi funeral

Siguiente


ABRIR ACORDES

Nuestro servidor se demoró 0.8 segundos en generar esta página. No esta nada mal!