ENCUENTRA MAS CANCIONES EN WWW.ACORDESWEB.COM

No Más
I.R.A.
Acordes


Más Versiones de esta Canción | Ver. 2 | Ver. 3 |
+A
-A
e|------------------------------|
B|-----------------------X2-----|
G|-7-7777--7-7777---------------|
D|-7-7777--7-7777--9-9999--7-7--|
A|-5-5555--5-5555--9-9999--7-7--|
E|-----------------7-7777--5-5--|

D5
Vamos cayendo sin razón Social discriminación
B5 A5
Tildado de loco Que repugnancia
E5 B5 A5
Hay gente esquizofrénica es gente que te odiara

A5 B5
No más punk en el suelo
E5
No más disfrazados en el sistema

D5
Este mundo podrido mera bomba de odio
B5 A5
Ciudades, sonidos y ratas putrefactas
D5 B5 A5
Estaremos en este infierno Por que no hay mas remedio

G5 A5
No más punks en el suelo
D5
No más disfrazados en el sistema

e|--------------------------|
B|--------------------------|
G|-8-7-8-7-8-8-7-8-7---X4---|
D|--------------------------|
A|--------------------------|
E|--------------------------|

D5
Vamos cayendo sin razón Social discriminación
B5 A5
Tildado de loco Que repugnancia
E5 B5 A5
Hay gente esquizofrénica es gente que te odiara

D5
Este mundo podrido mera bomba de odio
B5 A5
Ciudades, sonidos y ratas putrefactas
D5 B5 A5
Estaremos en este infierno Por que no hay mas remedio

G5 A5
No más punks en el suelo
D5
No más disfrazados en el sistema

e|----X-----X-----X-----X----|
B|----X-----X-----X-----X----|
G|----9-----X-----X-----X----|
D|----9-----5-----9-----7----|
A|----7-----5-----9-----7----|
E|----X-----3-----7-----5----|
E5 G5 B5 A5

SI BUSCAN CANCIONES DE CHITE ESCRIBANME A [email protected]