ENCUENTRA MAS CANCIONES EN WWW.ACORDESWEB.COM

Crazy Beautiful Life
Kesha
Acordes


Más Versiones de esta Canción | Ver. 2 | Ver. 3 | Ver. 4 |
+A
-A
G||--1----1----1----1--3--|--5----5----5----5-----|
D||-----------------------|--------------------6--|
A||-----------------------|-----------------------|
E||-----------------------|-----------------------|

G||-----------------------|-----------------------|
D||--3----3----3----3-----|-----------------------|
A||--------------------6--|--4----4----6----6-----|
E||-----------------------|-----------------------|