ENCUENTRA MAS CANCIONES EN WWW.ACORDESWEB.COM

Fumadores
Leo Quinteros
Acordes


Más Versiones de esta Canción | Ver. 2 | Ver. 3 |
+A
-A
Punteo

E|----------------------------------------------------
B|---0-----0-----0-----0-----1-----1-----1-----1------
G|------0-----0-----0-----0-----0-----0-----0----0----
D|----------------------------------------------------
A|----------------------------------------------------
E|----------------------------------------------------


Intro: SOL-DO (x2)


SOL DO
No deberías pero estas despierto
SOL DO
el yoga ya no te quita los nervios
SIm LAm
preguntándote si es cierto que existe el amor
SIm LAm
anda reservando un puesto en el sector fumador


SOL-DO (x2)


SOL DO
Hay principiantes, también hay expertos
SOL DO
somos un club sin nada de selecto
SIm LAm
aceptamos a cualquiera que quiera ingresar
SIm LAm
y solo de vez en cuando nos tienes que invitar


SOL-DO (x2)


SOL DO
La entrada es gratis, la salida vemos
SOL DO
depende cuanto te queme los dedos
SIm LAm
los que te ocultan todo ahora te exigen saber
SIm LAm SOL DO
tienes que no hacerles caso y no habrá nada que temer


SOL - DO


SOL DO
Hay tantas reglas, puedes romper cura
SOL DO
la mediocridad la llaman cordura
SIm LAm
hay millones de razones para no creerles mas
SIm LAm
la primera es que te olvides de todas las demas

SOL DO
Primera fila en el primer asiento
SOL DO
estas tan cerca que no puedes verlo
SIm LAm
todo anda tan rapido y tu quieres parar
SIm LAm SOL DO
todo es automatico y tu quieres caminar


SOL - DO


SOL DO
No deberías pero estas despierto
SOL DO
el yoga ya no te quita los nervios
SIm LAm
preguntándote si es cierto que existe el amor
SIm LAm
anda reservando un puesto en el sector fumador


Parte Final
SOL-DO
E|-------------------------------
B|-------------------------------
G|-------------------------------
D|---------------15--17-17-------
A|---------15---17---------------
E|----15h17----------------------