ENCUENTRA MAS CANCIONES EN WWW.ACORDESWEB.COM

Después de las diez
Liber Terán
Acordes


Más Versiones de esta Canción | Ver. 2 | Ver. 3 |
+A
-A
Ugh… esta es mi primera trascripción según yo así va,
sta chida la rola, por si no saben es del ex guitarrista de
“Los de abajo” pero ahora como solista.

Estos son lo acordes: A-E-F#m

A E F#m F#m
E-|------3--3-----0--0-----2--2------2--2---------------------|
B-|------3--3-----0--0-----2--2------2--2---------------------|
G-|------3--3-----1--1-----2--2------2--2---------------------|
D-|-----------------------------------------------------------|
A-|---0---------------------------2---------------------------|
E-|------------0--------2-------------------------------------|


Nota: Se toca como balada Son rasgueos hacia abajo.


Intro:

A-E-F#m (x4)

A E F#m
Esta vez quiero cantarte

A E F#m
Esta vez sin timidez

A E F#m
Esta vez quiero cantarte

A E F#m
Tequila aguardiente después de las diez


A E F#m
Los años pasan y uno queda aquí

A E F#m
El mismo lugar y mismo andén

A E F#m
Subiendo tú vagón en este mismo Tren

A E F#m
Color a recuerdo es sabor a ti

A E F#m
No he tenido más que este viejo papel

A E F#m
No he tenido más vaga palabra

A E F#m
Que la que voy soltando minuto a minuto

A E F#m
Segundo a segundo en esta madrugada

A E F#m
El Humo corre por el saxátil

A E F#m
Fresco tabaco te limpiara

A E F#m
Buscando una razón curando la ansiedad

A E F#m
Color a recuerdo es sabor a ti

A E F#m
Voy percibiendo más ese olor a tu piel

A E F#m
Voy percibiendo más vaga distancia

A E F#m
Hoy nada me promete que pueda encontrarme

A E F#m
En el mismo camino en la misma parada

A E F#m
Hay de las diez

A E F#m
Cosa que prometo yo te lo aseguro

A E F#m
Hay de las diez

A E F#m
Yo te mostrare mis recuerdos lo haré we we Wee…

(Ahí va el acordeón):

e-|-----------7----------------7------------------------------|
B-|---10-9-10---10-10--10-9-10---10-10------------------------|
G-|-----------------------------------------------------------|

e-|-----------7----------10-9-7----------7--------------------|
B-|---10-9-10---10-10-10---------10-9-10---10-10--------------|
G-|-----------------------------------------------------------|


A E F#m
Esta vez quiero cantarte

A E F#m
Esta vez sin timidez

A E F#m
Esta vez quiero cantarte

A E F#m
Tequila aguardiente después de las diez


A E F#m
Esta vez quiero cantarte

A E F#m
Esta vez sin timidez

A E F#m
Esta vez quiero cantarte

A E F#m
Tequila aguardiente después de las diez



A E F#m
Esta vez quiero cantarte

A E F#m
Esta vez sin timidez


A E F#m
Esta vez quiero cantarte

A E F#m
Tequila aguardiente después de las diez



A E F#m
Esta vez quiero cantarte

A E F#m
Esta vez sin timidez

A E F#m
Esta vez quiero cantarte

A E F#m
Tequila aguardiente después de las diez

A E F#m
Después de las diez

A E F#m
Después de las diez


A E F#m
Después de las diez…

Fin

ESTA ROLA es para ti HANI ERES MUY ESPECIAL PARA MI TE AMO
NO SE COMO VIVIR CONTIGO O SIN TI.
CREO QUE SIN TI ESTO NO ES VIDA PERO TE ADORO…
pd. Sabes que te amo atte: Arv.
¡KE ROCK!¡Hasta arriba grubi!¡UGH!