ENCUENTRA MAS CANCIONES EN WWW.ACORDESWEB.COM

Señorita Corazón
María Gabriela Epumer
Acordes

Álbum: Señorita Corazón (1998)

Más Versiones de esta Canción | Ver. 2 |
+A
-A
Punteo:
| | | | | | | | | | | | | | | |
|----------------|----------------|--0-------0-----|--0-------0-----|
|----0-------0---|----0-------0---|----3-------3---|----3-------3---|
|--0-------0-----|--0-------0-----|4-----4-3-----3-|2-----2-1-----1-|
|4-----4-3-----3-|2-----2-1-----1-|----------------|----------------|
|----------------|----------------|----------------|----------------|
|----------------|----------------|----------------|----------------|


(Sobre Punteo)
Camino, hacia la magia voy
buscando en vos un poco de sol
Los angeles, desde un balcón
me muestran su hogar, sus peces, su mar

C G D A
Y yo les doy mi corazón
C G# G
bailando hasta tu aparición
C G D A
sentir que flotas junto a mí
C Em
que cuidas de mí

(Sobre Punteo)
Camino, hacia la magia voy
llevando el color de un sueño de hoy
A un hombre yo le pregunté
si cerca de dios se encuentra mi sol

C G D A
Y entonces el se echó a volar
C G# G
mostrandome el cielo, su mar
C G D A
Y yo le di mi corazón
C C(inv)
nadando en tus sueños, tus sueños

G# A# F G
Y yo te doy mi corazón
G# A# F G
sueño en tus sueños
G# A# F G
Y yo te doy mi corazón
G# A# C
sueño en tus sueños

Solo:
| | | | | | | | | | | | | | | |
|----------------|----------------|----------------|----------------|
|----------------|----------------|----------------|----------------|
|----------------|----------------|----------------|----------------|
|----------------|----------------|2---------------|2---------------|
|----2---2-------|--2-2---------5-|---5--2-1-----5-|---5------------|
|----------5-5-3-|5---------------|----------------|------5-4-------|

(Sobre Punteo)
Camino, hacia la magia voy
buscando en vos un poco de sol
Los angeles, desde un balcón
me muestran su hogar, sus peces, su mar

C G D A
Y yo les doy mi corazón
C G# G
bailando hasta tu aparición
C G D A
sentir que flotas junto a mí
C C(inv)
tu cuidas de mí, cuidas de mi

G# A# F G
Y yo te doy mi corazón
G# A# F G
sueño en tus sueños
G# A# F G
Y yo te doy mi corazón
G# A# C
sueño en tus sueños

G# A# F G
Y yo te doy mi corazón
G# A# F G
sueño en tus sueños
G# A# F G
Y yo te doy mi corazón
G# A# C
sueño en tus sueños


Acordes:
[EBDGBe]
C x32010
G 320003
D xx0232
A x02220
G# 466544
C(inv) x32013
A# x13331
F 133211

Esta tab esta decicada a María Gabriela Epumer, que si no fuera por ella no estaría
escribiendo esto, y para Libera, a ver si por una vez me la saco de la cabeza...