ENCUENTRA MAS CANCIONES EN WWW.ACORDESWEB.COM

Nada es normal
Victor y Leo
Acordes


Más Versiones de esta Canción | Ver. 2 | Ver. 3 | Ver. 4 | Ver. 5 | Ver. 6 | Ver. 7 | Ver. 8 | Ver. 9 | Ver. 10 |
+A
-A
Capo 2o traste


Intro

Primero se hace este pequeño requinto:

1 ---------------------------|
2 -0h1h0---------------------|
3 -------0-----0-------------|
4 ---------0h2---------------|
5 ---------------------------|
6 ---------------------------|

Seguido viene un arpegio simple en Am y se quita el 2o dedo X2
de el 2o traste 4a cuerda para dar el bajeo en D.

Luego se repite:

1 ---------------------------|
2 -0h1h0---------------------|
3 -------0-----0-------------|
4 ---------0h2---------------|
5 ---------------------------|
6 ---------------------------|

Y se hace el arpegio en G

________________________________________________________


G C
La luz vas a apagar y el cielo a encender
Am D
Todo está tranquilo por aquí

G Am D
Te voy a conocer, me voy a apasionar
G C Am D G
No hay mucho más que decir iiieee

C
Estamos frente a frente
D
Nuestros labios no resisten
G C
Nuestros ojos son testigos, el amor existe,
Am D G G7
Todo es tan real, pero nada es normal

C D
Jamás había vivido un sentimiento tan profundo
G C
Quedarme aquí a tu lado es lo más lindo de este mundo
Am D G
Todo es tan real, pero nada es normal


Se repite el intro


G Am D
Te voy a conocer, me voy a apasionar
G C Am D G
No hay mucho más que decir iiieee

C
Estamos frente a frente
D
Nuestros labios no resisten
G C
Nuestros ojos son testigos, el amor existe,
Am D G G7
Todo es tan real, pero nada es normal

C D
Jamás había vivido un sentimiento tan profundo
G C
Quedarme aquí a tu lado es lo más lindo de este mundo
Am D C Em Am G
Todo es tan real, pero nada es normal