Canção Pra Tocar No Rádio (Acordes)

Maurício Tizumba

Subida por

Compartir


Imprimir FAQ
+A
-A

Texto

Desplazamiento

Transportador

Color de Fondo

Archivos

-A
+A
E|----------------------------------------------------
B|----------------------------------------------------
G|----------------------------------------------------
D|----------3--5--5--5--5--5--5--5--5--5--5--5--5--5--
A|----3--5--------------------------------------------
E|----------------------------------------------------
    Quem ouvir vi ra a  a  a  a  a  a  a  a  a  a  a

E|--------------------------------------------------------
B|--------------------------------------------------------
G|--------------------------------------------------------
D|----5---------3--5--5--5--5--5--5--5--5--5--5--5--5--5--
A|--------3--5--------------------------------------------
E|--------------------------------------------------------
      E quem ouvir vi ra a  a  a  a  a  a  a  a  a  a  a

E|-----------------------------------------------------------------------------------------
B|-----------------------------------------------------------------------------------------
G|-------3--5--6--5--3-------3--5--6--6--6--6--6---6----6----5--3--------------------------
D|----5-------------------5----------------------------------------5--3--------------------
A|-----------------------------------------------------------------------5--3--------------
E|-----------------------------------------------------------------------------5--3--5-----
      Essa canção tocar   Essa canção tocar no rádio'ou num programa de  t  v  a  a  a

E|----------------------------------------
B|----------------------------------------
G|-----------------3-----------------3----
D|-----------3--5--------------3--5-------
A|-----3--5--------------3--5-------------
E|----------------------------------------
     Quem ouvir virá   Quem ouvir virá

  Gm
Menina quem te contou
         Cm       D
Que essa noite serenou
  Gm
Menina quem te contou
         Cm          D
Que essa noite serenou

      Gm            Cm
Eu deitado no seu colo
    D                Gm
Serenou e não me molhou
                  Cm
Eu deitado no seu colo
      D                Gm
Você não me embalou

Embala eu oh
  Gm  
Embala nega
  Gm  
Embala eu oh
  G  
Embala nega oi



ACORDES PARA GUITARRA

PIANO UKELELE


TOP 20: Las más tocadas de Maurício Tizumba


07.04

x