Cualquier día (Acordes)

Piperrak

Subida por

Compartir


Imprimir FAQ
+A
-A

Texto

Desplazamiento

Transportador

Color de Fondo

Archivos

-A
+A
 
    
intro (tocalo con poca distorcion kasi acustico)
|--7-7-x-7--7--3-3-x-3--3--5-5-x-5--5--5-5-x-5-5-6--|
|--7-7-x-7--7--3-3-x-3--3--7-7-x-7--7--5-5-x-5-5-6--|
|--8-8-x-8--8--4-4-x-4--4--7-7-x-7--7--6-6-x-6-6-7--|
|--9-9-x-9--9--5-5-x-5--5--7-7-x-7--7--7-7-x-7-7-8--|
|--9-9-x-9--9--5-5-x-5--5--5-5-x-5--5--7-7-x-7-7-8--|
|--7-7-x-7--7--3-3-x-3--3--------------5-5-x-5-5-6--|


Pre Verso (tocalo estilo Ska)
|--7-7-7-7--3-3-3-3--5-5-5-5--5-5-5-5---|
|--7-7-7-7--3-3-3-3--7-7-7-7--5-5-5-5---|
|--8-8-8-8--4-4-4-4--7-7-7-7--6-6-6-6---|
|--9-9-9-9--5-5-5-5--7-7-7-7--7-7-7-7---|
|--9-9-9-9--5-5-5-5--5-5-5-5--7-7-7-7---|
|--7-7-7-7--3-3-3-3-----------5-5-5-5---|


...tu puedes morir (con distorcion)
|-------------|
|-------------|
|-------------|
|--7-7-7-9~---|
|--7-7-7-9~---|
|--5-5-5-7~---|


Verso
¡¡Cualquier dia!! (con distorcion)
|-------------------------------------------------------------|
|-------------------------------------------------------------|
|-----------------------------------7-7-7-7-7-7---------------|
|-9-9-9-----9-9-9-9-9-9-5-5-5-5-5-5-7-7-7-7-7-7-7-7-7-7-7-7-8-|
|-9-9-9-----9-9-9-9-9-9-5-5-5-5-5-5-5-5-5-5-5-5-7-7-7-7-7-7-8-|
|-7-7-7-----7-7-7-7-7-7-3-3-3-3-3-3-------------5-5-5-5-5-5-6-|

Eso es todo, ahi tu lo tocay en orden
    
 



ACORDES PARA GUITARRA

PIANO UKELELE


TOP 20: Las más tocadas de Piperrak


Toca una Canción al Azar de Piperrak

02.35

x