Por que estás triste (Acordes)

Savia Andina

Subida por

Compartir


Imprimir FAQ
+A
-A

Texto

Desplazamiento

Transportador

Color de Fondo

Archivos

-A
+A
 
    
Ahí les paso esta hermosa canción de este grupo
boliviano, espero que sea de su agrado.

Em                  G    D
  Por que estas triste dime por que
               Bm   Em
  veo en tus ojos pena y dolor
                G   D
  que negras nubes te hacen sufrir
             Bm    Em
  siento llover en tu corazón



                G    D
  Por que tan lejos miras por que
              Bm      Em
  o halgo precientes que sea fatal
                G   D
  no llores vida me haras llorar
              Bm   Em
  y nuestro llanto nos ahogará



            D  Em
  No llores vida me harás llorar
            D  Em
  No llores vida me harás llorar



Este es el solo que yo lo adapté para guitarra, el
viene acompañado con sampoñas.


                                D
e--7-------7--5--7--------7--3--2--------2p3--------
b----0--------------0--------------3----------3-----
g-------0--------------0--------------2----------2--
d-------------------------------0-------------------
a---------------------------------------------------
E--0-------------0----------------------------------



   Em
e--0-----------------0-------------------------
b-----0-----------0-----0-----------0----------
g--------0-----0-----------0-----0-------------
d--2-----------------2-------------------------
a-----------2-----------------2----------------
E----------------------------------------------



                                D
e--7-------7--5--7--------7--3--2--------2p3--------
b----0--------------0--------------3----------3-----
g-------0--------------0--------------2----------2--
d-------------------------------0-------------------
a---------------------------------------------------
E--0-------------0----------------------------------



   Em
e--0-----------------0-------------------------
b-----0-----------0-----0-----------0----------
g--------0-----0-----------0-----0-------------
d--2-----------------2-------------------------
a-----------2-----------------2----------------
E----------------------------------------------




                  D
e--2--------2--0--2--------2p3-----------------
b-----3--------------3----------3--------------
g--------2--------------2----------2-----------
d--0--------------0----------------------------
a----------------------------------------------
E----------------------------------------------




   Em
e--0-----------------0-------------------------
b-----0-----------0-----0-----------0----------
g--------0-----0-----------0-----0-------------
d--2-----------------2-------------------------
a-----------2-----------------2----------------
E----------------------------------------------



                  D
e--2--------2--0--2--------2p3-----------------
b-----3--------------3----------3--------------
g--------2--------------2----------2-----------
d--0--------------0----------------------------
a----------------------------------------------
E----------------------------------------------



   Em
e--0-----------------0-------------------------
b-----0-----------0-----0-----------0----------
g--------0-----0-----------0-----0-------------
d--2-----------------2-------------------------
a-----------2-----------------2----------------
E----------------------------------------------


              G    D
  Sé que en la vida hay que luchar
           Bm   Em
  y siendo pobres con una cruz
           G    D
  pero tu amor mi amor vale más
          Bm    Em
  por eso pido no sufras más


             G    D
  Si es por el hijo que estás así
           Bm    Em
  seca esa lágrima ya llegará
           G   D
  y en sus ojos nos traerá
       Bm   Em
  una mirada llena de amor



            D  Em
  Pero no llores me harás lorar
            D  Em
  Pero no llores me harás llorar


            D  Em
  Pero no llores me harás llorar
            D  Em
  Ahhhhhhhhhhh Uhhhhhhhhhhhhhh


Eso es todo por hoy, saludos desde el corazón de
América, Bolivia.
    
 



ACORDES PARA GUITARRA

PIANO UKELELE


TOP 20: Las más tocadas de Savia Andina


22.47

x