Añoralgias (Acordes)

Les Luthiers

Subida por

Compartir


Imprimir FAQ
+A
-A

Texto

Desplazamiento

Transportador

Color de Fondo

Archivos

-A
+A
¡Primera! 

E------------------------------------------------------------------
A------------------------------------------------------------------
D------------------------------------------------------------------
G-----------------------11-----------------------------------------
B--3---5---7----7-6-7-----------10--12-13-14---14--12--10-8-7-5-3--
E----2---3---5--5-4-5-------10---9--10-11-12---12--10--9--7-5-3-2--


E----------------------------------------0-2-3---------1------------------
A-----------------4---2---0-4--------------------------------0------------
D-----------0-0-4---2---0-------4-----------------------------------------
G---------------------------------6-5-6----------3---------2--------0-----
B--------------------------------------------------3---------1--------2---
E--2-3-2---------------------------------------------3---------1--------1-


D  A7          D          A7         D
   Esta zamba canto a mi tierra distante
              G         D7          G
   cálido pueblito de nuestro interior
             A7                     D
   tierra ardiente que inspira mi amor,
                B7               Em
   gredosa, reseca, de sol calcinante,
         A7                  D
   recordando esa tierra quemante 
   Gm          F      A7     D
   resuena mi grito: ¡qué calor! 

D  A7         D          A7       D 
   Cómo te recuerdo, mi lindo pueblito 
               G        D7       G
   con tu aire húmedo y denso de día 
          A7               D
   noches cálidas de fantasía
               B7                    Em
   pobladas de magia, de encanto infinito, 
           A7                    D
   y el cantar de tu fresco arroyito, 
   Gm                F        A7      D
   salvo en los diez meses de la sequía.

D                  F#7                Bm
   Siempre fue muy calmo mi pueblo adorado, 
                 F#7                  Bm
   salvo aquella vez que pasó el huracán, 
          A7                   D
   viejos pagos, ¡qué lejos están! 
                B7                Em
   mi tierra querida, mi dulce poblado, 
          A7                    D
   tengo miedo de que hayas cambiado 
       Gm         F          A7         D
   después de la ultima erupción del volcán. 

   ¡Segunda!

   Tierra que hasta ayer mi niñez cobijabas 
   siempre te recuerdo con el corazón, 
   aunque aquel arroyito dulzón 
   hoy sea un hirviente torrente de lava 
   que por suerte a veces se apaga, 
   cuando llega el tiempo de la inundación. 

   Los hambrientos lobos aullando estremecen,
   cuando son mordidos por fieros mosquitos, 
   no se puede dormir por los gritos 
   de miles de buitres que el cielo oscurecen,
   siempre algún terremoto aparece 
   y al atardecer llueven meteoritos. 

   Y si a mi pueblito volver yo pudiera, 
   a mi viejo pueblo al que no he regresado
   si pudiera volver al poblado 
   que siempre me llama, que siempre me espera, 
   SI A MI pueblo volver yo pudiera, 
   no lo haría ni mamado.(*)

POR AHÍ EN OTRA PÁGINA ME ENCONTRÉ ESTA INFORMACIÓN
Y AHÍ SE LAS DEJO PA' K LA TENGAN TMB. :P


(*) Esta última estrofa tuvo varias versiones según el país donde se representaba. 
Así tenemos: no lo haría ni de vainas (Caracas) 
no lo haría en absoluto (Barcelona) 
no lo haría ni chalado (Chile) 
yo les juro que ni madres (México)




ACORDES PARA GUITARRA

PIANO UKELELE
A
F#m
C#m
E
F#
G#
G#7
G#m
B


TOP 20: Las más tocadas de Les Luthiers


01.55

x