Zamba del cantor enamorado (Acordes)

Hernan Figueroa Reyes

Subida por

Compartir


Imprimir FAQ
+A
-A

Texto

Desplazamiento

Transportador

Color de Fondo

Archivos

-A
+A
Hice pequeños cambios quedo un poco mas parecida aunque
en un tramo casi final de la intro resalta mas que puntea otra guitarra..


e---------------------------5--4--5--7----7-------7-----7-----7--5--7--8-
B----------------------1-----------------5--5---5-----5-----5------------
G--------------------2------5--4--5--7--------7-----7-----7------5--7--9-
D--------0-1-2-----2------------------------------------------------------
A--0-2-3------------------------------------------------------------------
                                  (aca se nota mas la otra guitarra que hace
                                    algo parecido a lo anterior)

e----8-7-8-7-5------5-3-2-3-1-0--+---0---0---0---0---0---0-+------
B--------------4/5---------------+-4---3---1---3---1---0---+-----
G--9---8-9-8-6------6-4-3-4-2-1--+-------------------------+------
D--------------------------------+-------------------------+-----
A--------------------------------+-------------------------+------

e---------------------------------3------------------------------
B---------1-----------------------------------------------------
G-------2-------------------------3-----------------------------
D-----2------------------------2--------------------------------
A---0--------3-2-------------2-----------------------------------
E------------------3-1-0---0-------------------------------------




ACORDES PARA GUITARRA

PIANO UKELELE
D
A7
G
F#m
Bm


TOP 20: Las más tocadas de Hernan Figueroa Reyes


22.10

x