Nos Bares da Cidade (Acordes)

Eduardo Costa

Subida por

Compartir


Imprimir FAQ
+A
-A

Texto

Desplazamiento

Transportador

Color de Fondo

Archivos

-A
+A
E|------------------------------------------------|
B|------------------------------------------------|
G|------------------------------------------------|
D|---6/7-6--3-3/5------6/7-6--3-2-----------------|
A|----------------3-------------------------------|
E|------------------------------------------------|

E|------------------------------------------------|
B|------------------------------------------------|
G|--------------------10-9-7-5----5h7-5-----------|
D|---6/7-6--3-5-5/14------------------------------|
A|------------------------------------------------|
E|------------------------------------------------|

C                         F          C
Garçom me traga outra garrafa de cerveja
             F           C                                     G
Vou ficar sozinho nessa mesa, eu quero beber e chorar por ela
F                                        C
Garçom a minha vida agora tá de ponta-cabeça
                                      G
Já tentei mas nada faz com que eu esqueça
                F              C
Dos olhos, dos lábios daquela mulher
C                   F            C            F          C
Garçom ela saiu de vez da minha vida e agora busco uma saída
                    C7             F
Minha história de amor acaba em solidão
                                              C
Garçom se eu ficar muito chato e der algum vexame
                               G                    F         G        C
pegue toda minha cerveja e derrame, faça o que ela fez com a minha paixão

C                                        G
Derrama cerveja, derrama, derrama a tristeza do meu coração
                                              C              G
Que essa angústia é uma bebida misturada a batida com a solidão
C                                         C7                 F
Derrama cerveja, derrama, enquanto eu derramo toda essa saudade
                       C                   G                  C
Eu sou apenas um qualquer, bebendo por mulher nos Bares da Cidade



ACORDES PARA GUITARRA

PIANO UKELELE


TOP 20: Las más tocadas de Eduardo Costa


08.14

x