Todo Pasa (Acordes)

los Piojos

Subida por

Compartir


Imprimir FAQ
+A
-A

Texto

Desplazamiento

Transportador

Color de Fondo

Archivos

-A
+A
Traté de mejorar la versión ya existente de este gran tema de los piojos,
modificándola un poco y sacando algunos arreglos
y punteos de la canción original. Espero que les guste y les cope!!
Un abrazo grande a todos! AGUANTE LOS PIOJOS VIEJO!!!
Keke!


Todo Pasa: Los Piojos

Intro:

|--1--0--3--5--5--5--3--4--5--------|
|-----------------------------------|
|--2--0--2--5--5--5--3--3--5--------|
|-----------------------------------|
|-----------------------------------|
|-----------------------------------| x 2

Punteo:

|---1----1--0---------------
|--------------3---5-5------
|-2--2---2--0--3---3-3--3-0-
|---------------------------
|---------------------------
|---------------------------

----1----1-0----------------|
--------------3--1----------|
--2--2---2-0--3--3----------|
----------------------------|
----------------------------|
----------------------------| X 2


(Punteo, en toda la estrofa)
F       C       Bb
En la ciudad gris,
F       C       Bb
Bares y cafés
F       C       Bb
Tenes que olvidar,
F       C       Bb
Nena no podes
F       C       Bb
Era un escritor,
F       C       Bb
Se la daba de
F       C       Bb
Era un usador,
F       C       Bb
De tu buena fe

Intro:

|--1--0--3--5--5--5--3--4--5--------|
|-----------------------------------|
|--2--0--2--5--5--5--3--3--5--------|
|-----------------------------------|
|-----------------------------------|
|-----------------------------------| x 2



Y justo pensé, (pensé por pensar)
F       C       Bb
Yo que estaba acá
F       C       Bb
Nena donde estés
F       C       Bb
Como? como estas?


(Punteo, en toda la estrofa)
F       C       Bb
Sexy overol,
F       C       Bb
En el restoran
F       C       Bb
Pero el no te espera
F       C       Bb
El no te espera y no olvidas
F       C       Bb
Y ves
                             F       C       Bb
Que esta tristeza no puede ser
                             F       C       Bb
Que algo mejor tiene que haber
                             F       C       Bb
Algo por donde salir a andar

F     C  Bb
Dale, do-lores no llores
F     C  Bb
Dale, do-lores no llores
F     C  Bb
Dale, do-lores no llores
F     C  Bb
No...                     x2

|--------------------------------------|
|--------------------------------------|
|---2-2---2-2---2-2---2-2--------------|
|--------------------------------------|
|-0-----2-----3-----2------------------|
|--------------------------------------|
Servido va tu amor   G#m
|--------------------------------------|
|---3-3----3-3---3-3---3-3-------------|
|--------------------------------------|
|-0-----2-----3-----2------------------|
|--------------------------------------|
|--------------------------------------|
  Oha,    oha,    oha,    servido va tu amor  C#m
|--------------------------------------|
|--------------------------------------|
|---2-2---2-2---2-2---2-2--------------|
|--------------------------------------|
|-0-----2-----3-----2------------------|
|--------------------------------------|
  Oha,    oha,    oha,    servido va tu amor  G#m
|--------------------------------------|
|---3-3----3-3---3-3---3-3-------------|
|--------------------------------------|
|-0-----2-----3-----2------------------|
|--------------------------------------|
|--------------------------------------|
   Oha,    oha,    oha,    servido va...

F    C Bb (Intro) X2


(Percusión)

Si viene y entra por esa puerta

Hay, yo me muero

Fantasma o no

Vos en el y el en vos


(Punteo, en toda la estrofa)
F       C       Bb
Y brillo loco en la bandeja están
F       C       Bb
Sus ojos negros
F       C       Bb
Pero ya basta! ya basta!
F       C       Bb
Sabemos que termino


F     C  Bb
Dale, do-lores no llores
F     C  Bb
Dale, do-lores no llores
F     C  Bb
Dale, do-lores no llores
F     C  Bb
No...                     x2


F        C  Bb
Oh oh, oh oh oh

F        C  Bb
Oh oh, oh oh oh


        F        C  Bb
Todo pasa,
        F        C  Bb
Todo pasa,
        F        C  Bb
Todo paaaaasa,
        F        C  Bb
Todo pasa,
        F        C  Bb F C F
Todo pasa, todo pasa

(Fin)




ACORDES PARA GUITARRA

PIANO UKELELE
Bb
A
Dm
C


TOP 20: Las más tocadas de los Piojos


Toca una Canción al Azar de los Piojos

01.27

x