Vida (Acordes)

Saurom

Subida por

Compartir


Imprimir FAQ
+A
-A

Texto

Desplazamiento

Transportador

Color de Fondo

Archivos

-A
+A
INTRO:
  F                        Bb
e|--------------------------------------------------|
B|----13--11--10--11/10------13--11--10--11/10------|
G|-10---10--10--10---------10--10--10--10------10---|
D|--------------------------------------------------|
A|--------------------------------------------------|
E|--------------------------------------------------|

  F                        C
e|--------------------------------------------------|
B|----13--11--10--11/10------13--11--10--11/10------|
G|-10---10--10--10---------10--10--10--10------10---|
D|--------------------------------------------------|
A|--------------------------------------------------|
E|--------------------------------------------------|

VERSO 1:
Dm             Bb                F                   C
Hoy paseaba hablando con ella en nuestra triste soledad,
Dm                 Bb                  F                    C
en la distancia brillaba su estrella y me susurraba ante el mar,
Dm                   Bb                    F                     C
Si me esucharás ¡ay, cuánto te extraño! no sufras te invito a vivir,
Dm               Bb                        F                C
Ve y aprovecha todos tus momentos, que el mundo disfrute de tí.

PRECORO:
Dm                  Bb                  F            C
Juro que tu sueño, juro que mis sueños, se hará hoy realidad,
Dm                 Bb                 F            C
juro no rendirme, juro ser más fuerte y llegar hoy más allá.

CORO:
F     C     Dm          Bb
¡Vida, vida, vida aquí estoy!.
F     C     Dm          Bb
¡La Vida, vida, vida es hoy!.

INTRO:
  F                        Bb
e|--------------------------------------------------|
B|----13--11--10--11/10------13--11--10--11/10------|
G|-10---10--10--10---------10--10--10--10------10---|
D|--------------------------------------------------|
A|--------------------------------------------------|
E|--------------------------------------------------|

  F                        C
e|--------------------------------------------------|
B|----13--11--10--11/10------13--11--10--11/10------|
G|-10---10--10--10---------10--10--10--10------10---|
D|--------------------------------------------------|
A|--------------------------------------------------|
E|--------------------------------------------------|

VERSO 2:
Dm               Bb                   F               C
Yo aceleraba mis pasos me embriaga un manto de felicidad,
Dm              Bb                F                   C
ella sonrie radiante y como es mi Ángel me incita a pensar,
Dm               Bb                 F                C
sobre tantísimas cosas hermosas que nunca logré valorar,
Dm                 Bb                 F               C
que emocionaban mi alma y le daban sentido a mi realidad.

PRECORO:
Dm                  Bb                 F                C
Juro que te anhelo, pero sé que puedo hoy sentir que estás aquí,
Dm                  Bb                      F          C
juro que te quiero, juro que este encuentro vivirá dentro de mí.

CORO:
 F     C     Dm          Bb
¡Vida, vida, vida aquí estoy!.
    F     C     Dm      Bb
¡La vida, vida, vida es hoy!.
    F     C     Dm      Bb
¡Mi vida, vida, vida te doy!,
    F     C     Dm      Bb
¡La vida, vida, vida es hoy!.

         Dm                   Bb                     F
   Y no existe nada más importante que aprender a creer en ti
e|------------------------------------------------------13-13-|
B|--- 13--------------------13--------------------------------|
G|-12b--12b-12-12-10-10--12b--12b-12-12-10-10---14b-12--------|
D|------------------------------------------------------------|
A|------------------------------------------------------------|
E|------------------------------------------------------------|
       C                Dm                     Bb
   a creer en mí, nunca temas a perder, no te quiero ver llorar
e|---------12-12----------------------------------------------|
B|----------------- 13---------------------13-----------------|
G|-14b-12--------12b---12b-12-12-10-10--12b--12b-12-12-10-10--|
D|------------------------------------------------------------|
A|------------------------------------------------------------|
E|------------------------------------------------------------|
        F                      C
  antes de morir, siempre hay vida
e|---------13-13-----------12--12-----|
B|------------------------------------|
G|-14b-12---------14b--12-------------|
D|------------------------------------|
A|------------------------------------|
E|------------------------------------|

(INTRO MAS VOZ)
     Dm        Bb        F  C
y es hoy, y es hoy, y es hoy.

e|---------------------------------------------------|
B|----13--11--10--11/10------13--11--10--11/10-------|
G|-10---10--10--10---------10--10--10--10-----10-----|
D|---------------------------------------------------| X2
A|---------------------------------------------------|
E|---------------------------------------------------|

e|---------------------------------------------------|
B|----13--11--10--11/10------13--11--10--11/10-------|
G|-10---10--10--10---------10--10--10--10-----10-----|X2
D|---------------------------------------------------|
A|---------------------------------------------------|
E|---------------------------------------------------|

Final arpegeo en F

CUALQUIER DUDA Y/O SUGERENCIA, ESCRÍBANME A: siwar_9hotmail.com




ACORDES PARA GUITARRA

PIANO UKELELE
G
D
C
Am
E7


TOP 20: Las más tocadas de Saurom


Toca una Canción al Azar de Saurom

22.28

x