A Ilha da fantasia (Acordes)

Raul Seixas

Subida por

Compartir


Imprimir FAQ
+A
-A

Texto

Desplazamiento

Transportador

Color de Fondo

Archivos

-A
+A
Intr.:(A B7 D A) 2x 
Solo De Introdução:
E|-----------------0-----------0----------0----------0------0-------0-
B|--------------------0------------0---------0----------0-------0-----
G|-1--2---3--4-----------3------------2----------1--------------------
D|--------------------------------------------------------------------
A|--------------------------------------------------------------------
E|--------------------------------------------------------------------

E|-----------------0-----------0----------0----------0------0-------0----
B|--------------------0------------0---------0----------0-------0--------
G|-1--2---3--4-----------3------------2----------1----------------------1
D|-----------------------------------------------------------------------
A|-----------------------------------------------------------------------
E|-----------------------------------------------------------------------

A     C#m   D             E7          A
Vamos logo que já está na hora de zarpar
        C#m  D       E            A    
Vem sem medo que não vamos naufragar
       D
Navegador!
           E        F#m
Não se esqueça meu amigo
       A           C#m
de chamar o seu vizinho
       D
Navegador!
           E          A        F#m    
Vê se na praça tem alguém para vir
   D        E          A          F#m  
A barca de Noé tá pra sair, navegador
   D        E             A    Solo Intr.         
A barca de Noé já vai partir
 A     C#m  D          E          A    
Vamos escolher bem melhores condições
       C#m  D           E          A   
Longe desse triste carnaval de ilusões
      D
Navegador!
              E               F#m 
Deixe os que sonham em ser felizes
      A         C#m
habitando o paraíso
       D
Navegador!
       E             A  F#m
Já faz tempo que esperou
  D          E             A
vivendo sob leis que não criou,
      F#m
navegador
   D         E             F    G A
Vivendo sob leis que não criou



ACORDES PARA GUITARRA

PIANO UKELELE


TOP 20: Las más tocadas de Raul Seixas


Toca una Canción al Azar de Raul Seixas

08.45

x